  0
SECTION
  2
HEADER
  9
$ACADVER
  1
AC1014
  9
$ACADMAINTVER
 70
     9
  9
$DWGCODEPAGE
  3
ANSI_1251
  9
$INSBASE
 10
0.0
 20
0.0
 30
0.0
  9
$EXTMIN
 10
-31.8217253861
 20
-426.3129873232
 30
0.0
  9
$EXTMAX
 10
738.9265863399
 20
40.5767180022
 30
0.0
  9
$LIMMIN
 10
0.0
 20
0.0
  9
$LIMMAX
 10
420.0
 20
297.0
  9
$ORTHOMODE
 70
     0
  9
$REGENMODE
 70
     1
  9
$FILLMODE
 70
     1
  9
$QTEXTMODE
 70
     0
  9
$MIRRTEXT
 70
     1
  9
$DRAGMODE
 70
     2
  9
$LTSCALE
 40
1.0
  9
$OSMODE
 70
    37
  9
$ATTMODE
 70
     1
  9
$TEXTSIZE
 40
3.5
  9
$TRACEWID
 40
1.0
  9
$TEXTSTYLE
  7
STANDARD
  9
$CLAYER
  8
0
  9
$CELTYPE
  6
BYLAYER
  9
$CECOLOR
 62
   256
  9
$CELTSCALE
 40
1.0
  9
$DELOBJ
 70
     1
  9
$DISPSILH
 70
     0
  9
$DIMSCALE
 40
1.0
  9
$DIMASZ
 40
3.0
  9
$DIMEXO
 40
0.0
  9
$DIMDLI
 40
3.75
  9
$DIMRND
 40
0.0
  9
$DIMDLE
 40
0.0
  9
$DIMEXE
 40
1.0
  9
$DIMTP
 40
0.0
  9
$DIMTM
 40
0.0
  9
$DIMTXT
 40
3.5
  9
$DIMCEN
 40
2.5
  9
$DIMTSZ
 40
0.0
  9
$DIMTOL
 70
     0
  9
$DIMLIM
 70
     0
  9
$DIMTIH
 70
     1
  9
$DIMTOH
 70
     1
  9
$DIMSE1
 70
     0
  9
$DIMSE2
 70
     0
  9
$DIMTAD
 70
     1
  9
$DIMZIN
 70
     0
  9
$DIMBLK
  1

  9
$DIMASO
 70
     1
  9
$DIMSHO
 70
     1
  9
$DIMPOST
  1

  9
$DIMAPOST
  1

  9
$DIMALT
 70
     0
  9
$DIMALTD
 70
     3
  9
$DIMALTF
 40
0.0393700787
  9
$DIMLFAC
 40
1.0
  9
$DIMTOFL
 70
     1
  9
$DIMTVP
 40
0.0
  9
$DIMTIX
 70
     0
  9
$DIMSOXD
 70
     0
  9
$DIMSAH
 70
     0
  9
$DIMBLK1
  1

  9
$DIMBLK2
  1

  9
$DIMSTYLE
  2
ISO-25
  9
$DIMCLRD
 70
     0
  9
$DIMCLRE
 70
     0
  9
$DIMCLRT
 70
     0
  9
$DIMTFAC
 40
1.0
  9
$DIMGAP
 40
3.0
  9
$DIMJUST
 70
     0
  9
$DIMSD1
 70
     0
  9
$DIMSD2
 70
     0
  9
$DIMTOLJ
 70
     0
  9
$DIMTZIN
 70
     0
  9
$DIMALTZ
 70
     0
  9
$DIMALTTZ
 70
     0
  9
$DIMFIT
 70
     3
  9
$DIMUPT
 70
     0
  9
$DIMUNIT
 70
     2
  9
$DIMDEC
 70
     3
  9
$DIMTDEC
 70
     3
  9
$DIMALTU
 70
     2
  9
$DIMALTTD
 70
     3
  9
$DIMTXSTY
  7
STANDARD
  9
$DIMAUNIT
 70
     0
  9
$LUNITS
 70
     2
  9
$LUPREC
 70
     2
  9
$SKETCHINC
 40
1.0
  9
$FILLETRAD
 40
10.0
  9
$AUNITS
 70
     0
  9
$AUPREC
 70
     2
  9
$MENU
  1
.
  9
$ELEVATION
 40
0.0
  9
$PELEVATION
 40
0.0
  9
$THICKNESS
 40
0.0
  9
$LIMCHECK
 70
     0
  9
$CHAMFERA
 40
0.0
  9
$CHAMFERB
 40
0.0
  9
$CHAMFERC
 40
0.0
  9
$CHAMFERD
 40
0.0
  9
$SKPOLY
 70
     0
  9
$TDCREATE
 40
2460164.636771817
  9
$TDUPDATE
 40
2460164.637648507
  9
$TDINDWG
 40
0.0000000116
  9
$TDUSRTIMER
 40
0.0000000116
  9
$USRTIMER
 70
     1
  9
$ANGBASE
 50
0.0
  9
$ANGDIR
 70
     0
  9
$PDMODE
 70
     0
  9
$PDSIZE
 40
-1.0
  9
$PLINEWID
 40
0.0
  9
$COORDS
 70
     1
  9
$SPLFRAME
 70
     0
  9
$SPLINETYPE
 70
     6
  9
$SPLINESEGS
 70
     8
  9
$ATTDIA
 70
     0
  9
$ATTREQ
 70
     1
  9
$HANDLING
 70
     1
  9
$HANDSEED
  5
98E
  9
$SURFTAB1
 70
     6
  9
$SURFTAB2
 70
     6
  9
$SURFTYPE
 70
     6
  9
$SURFU
 70
     6
  9
$SURFV
 70
     6
  9
$UCSNAME
  2

  9
$UCSORG
 10
0.0
 20
0.0
 30
0.0
  9
$UCSXDIR
 10
1.0
 20
0.0
 30
0.0
  9
$UCSYDIR
 10
0.0
 20
1.0
 30
0.0
  9
$PUCSNAME
  2

  9
$PUCSORG
 10
0.0
 20
0.0
 30
0.0
  9
$PUCSXDIR
 10
1.0
 20
0.0
 30
0.0
  9
$PUCSYDIR
 10
0.0
 20
1.0
 30
0.0
  9
$USERI1
 70
     0
  9
$USERI2
 70
     0
  9
$USERI3
 70
     0
  9
$USERI4
 70
     0
  9
$USERI5
 70
     0
  9
$USERR1
 40
0.0
  9
$USERR2
 40
0.0
  9
$USERR3
 40
0.0
  9
$USERR4
 40
0.0
  9
$USERR5
 40
0.0
  9
$WORLDVIEW
 70
     1
  9
$SHADEDGE
 70
     3
  9
$SHADEDIF
 70
    70
  9
$TILEMODE
 70
     0
  9
$MAXACTVP
 70
    64
  9
$PINSBASE
 10
0.0
 20
0.0
 30
0.0
  9
$PLIMCHECK
 70
     0
  9
$PEXTMIN
 10
-31.8217253861
 20
-426.3129873232
 30
0.0
  9
$PEXTMAX
 10
738.9265863399
 20
40.5767180022
 30
0.0
  9
$PLIMMIN
 10
-52.0038910506
 20
-2.626459144
  9
$PLIMMAX
 10
52.0038910506
 20
70.9143968872
  9
$UNITMODE
 70
     0
  9
$VISRETAIN
 70
     1
  9
$PLINEGEN
 70
     0
  9
$PSLTSCALE
 70
     1
  9
$TREEDEPTH
 70
  3020
  9
$PICKSTYLE
 70
     1
  9
$CMLSTYLE
  2
STANDARD
  9
$CMLJUST
 70
     0
  9
$CMLSCALE
 40
20.0
  9
$PROXYGRAPHICS
 70
     1
  9
$MEASUREMENT
 70
     1
  0
ENDSEC
  0
SECTION
  2
CLASSES
  0
CLASS
  1
ACDBDICTIONARYWDFLT
  2
AcDbDictionaryWithDefault
  3
ObjectDBX Classes
 90
        0
280
     0
281
     0
  0
CLASS
  1
VISUALSTYLE
  2
AcDbVisualStyle
  3
ObjectDBX Classes
 90
     4095
280
     0
281
     0
  0
CLASS
  1
MATERIAL
  2
AcDbMaterial
  3
ObjectDBX Classes
 90
     1153
280
     0
281
     0
  0
CLASS
  1
SCALE
  2
AcDbScale
  3
ObjectDBX Classes
 90
     1153
280
     0
281
     0
  0
CLASS
  1
TABLESTYLE
  2
AcDbTableStyle
  3
ObjectDBX Classes
 90
     4095
280
     0
281
     0
  0
CLASS
  1
MLEADERSTYLE
  2
AcDbMLeaderStyle
  3
ACDB_MLEADERSTYLE_CLASS
 90
     4095
280
     0
281
     0
  0
CLASS
  1
SUN
  2
AcDbSun
  3
SCENEOE
 90
     1153
280
     0
281
     0
  0
CLASS
  1
XRECORD
  2
AcDbXrecord
  3
ObjectDBX Classes
 90
        0
280
     0
281
     0
  0
CLASS
  1
LWPOLYLINE
  2
AcDbPolyline
  3
ObjectDBX Classes
 90
        0
280
     0
281
     1
  0
CLASS
  1
HATCH
  2
AcDbHatch
  3
ObjectDBX Classes
 90
        0
280
     0
281
     1
  0
ENDSEC
  0
SECTION
  2
TABLES
  0
TABLE
  2
VPORT
  5
8
330
0
100
AcDbSymbolTable
 70
     1
  0
VPORT
  5
29
330
8
100
AcDbSymbolTableRecord
100
AcDbViewportTableRecord
  2
*ACTIVE
 70
     0
 10
0.0
 20
0.0
 11
1.0
 21
1.0
 12
353.5524304769
 22
-192.8681346605
 13
0.0
 23
0.0
 14
10.0
 24
10.0
 15
10.0
 25
10.0
 16
0.0
 26
0.0
 36
1.0
 17
0.0
 27
0.0
 37
0.0
 40
476.2274994319
 41
1.6508145349
 42
50.0
 43
0.0
 44
0.0
 50
0.0
 51
0.0
 71
     0
 72
   100
 73
     1
 74
     3
 75
     0
 76
     0
 77
     0
 78
     0
  0
ENDTAB
  0
TABLE
  2
LTYPE
  5
5
330
0
100
AcDbSymbolTable
 70
     6
  0
LTYPE
  5
14
330
5
100
AcDbSymbolTableRecord
100
AcDbLinetypeTableRecord
  2
BYBLOCK
 70
     0
  3

 72
    65
 73
     0
 40
0.0
  0
LTYPE
  5
15
330
5
100
AcDbSymbolTableRecord
100
AcDbLinetypeTableRecord
  2
BYLAYER
 70
     0
  3

 72
    65
 73
     0
 40
0.0
  0
LTYPE
  5
16
330
5
100
AcDbSymbolTableRecord
100
AcDbLinetypeTableRecord
  2
CONTINUOUS
 70
     0
  3
Solid line
 72
    65
 73
     0
 40
0.0
  0
LTYPE
  5
6E
330
5
100
AcDbSymbolTableRecord
100
AcDbLinetypeTableRecord
  2
HIDDEN
 70
     0
  3
Hidden __ __ __ __ __ __ __ __ __ __ __ __ __ __
 72
    65
 73
     2
 40
1.905
 49
1.27
 74
     0
 49
-0.635
 74
     0
  0
LTYPE
  5
6F
330
5
100
AcDbSymbolTableRecord
100
AcDbLinetypeTableRecord
  2
PHANTOM
 70
     0
  3
Phantom ______  __  __  ______  __  __  ______
 72
    65
 73
     6
 40
12.7
 49
6.35
 74
     0
 49
-1.27
 74
     0
 49
1.27
 74
     0
 49
-1.27
 74
     0
 49
1.27
 74
     0
 49
-1.27
 74
     0
  0
LTYPE
  5
70
330
5
100
AcDbSymbolTableRecord
100
AcDbLinetypeTableRecord
  2
CENTER
 70
     0
  3
Center ____ _ ____ _ ____ _ ____ _ ____ _ ____
 72
    65
 73
     4
 40
10.16
 49
6.35
 74
     0
 49
-1.27
 74
     0
 49
1.27
 74
     0
 49
-1.27
 74
     0
  0
LTYPE
  5
71
330
5
100
AcDbSymbolTableRecord
100
AcDbLinetypeTableRecord
  2
CENTERX2
 70
     0
  3
Center (2x) ________  __  ________  __  _____
 72
    65
 73
     4
 40
20.32
 49
12.7
 74
     0
 49
-2.54
 74
     0
 49
2.54
 74
     0
 49
-2.54
 74
     0
  0
LTYPE
  5
72
330
5
100
AcDbSymbolTableRecord
100
AcDbLinetypeTableRecord
  2
DOT2
 70
     0
  3
Dot (.5x) ........................................
 72
    65
 73
     2
 40
0.635
 49
0.0
 74
     0
 49
-0.635
 74
     0
  0
ENDTAB
  0
TABLE
  2
LAYER
  5
2
330
0
100
AcDbSymbolTable
 70
     1
  0
LAYER
  5
10
330
2
100
AcDbSymbolTableRecord
100
AcDbLayerTableRecord
  2
0
 70
     0
 62
     7
  6
CONTINUOUS
  0
ENDTAB
  0
TABLE
  2
STYLE
  5
3
330
0
100
AcDbSymbolTable
 70
     1
  0
STYLE
  5
11
330
3
100
AcDbSymbolTableRecord
100
AcDbTextStyleTableRecord
  2
STANDARD
 70
     0
 40
0.0
 41
1.0
 50
0.0
 71
     0
 42
3.5
  3
txt
  4

  0
ENDTAB
  0
TABLE
  2
VIEW
  5
6
330
0
100
AcDbSymbolTable
 70
     0
  0
ENDTAB
  0
TABLE
  2
UCS
  5
7
330
0
100
AcDbSymbolTable
 70
     0
  0
ENDTAB
  0
TABLE
  2
APPID
  5
9
330
0
100
AcDbSymbolTable
 70
     1
  0
APPID
  5
12
330
9
100
AcDbSymbolTableRecord
100
AcDbRegAppTableRecord
  2
ACAD
 70
     0
  0
ENDTAB
  0
TABLE
  2
DIMSTYLE
  5
A
330
0
100
AcDbSymbolTable
 70
     1
  0
DIMSTYLE
105
27
330
A
100
AcDbSymbolTableRecord
100
AcDbDimStyleTableRecord
  2
ISO-25
 70
     0
  3

  4

  5

  6

  7

 40
1.0
 41
2.5
 42
0.625
 43
3.75
 44
1.25
 45
0.0
 46
0.0
 47
0.0
 48
0.0
140
2.5
141
2.5
142
0.0
143
0.0393700787
144
1.0
145
0.0
146
1.0
147
0.625
 71
     0
 72
     0
 73
     0
 74
     0
 75
     0
 76
     0
 77
     1
 78
     8
170
     0
171
     3
172
     1
173
     0
174
     0
175
     0
176
     0
177
     0
178
     0
270
     2
271
     2
272
     2
273
     2
274
     3
340
11
275
     0
280
     0
281
     0
282
     0
283
     0
284
     8
285
     0
286
     0
287
     3
288
     0
  0
ENDTAB
  0
TABLE
  2
BLOCK_RECORD
  5
1
330
0
100
AcDbSymbolTable
 70
     9
  0
BLOCK_RECORD
  5
1F
330
1
100
AcDbSymbolTableRecord
100
AcDbBlockTableRecord
  2
*MODEL_SPACE
  0
BLOCK_RECORD
  5
1B
330
1
100
AcDbSymbolTableRecord
100
AcDbBlockTableRecord
  2
*PAPER_SPACE
  0
BLOCK_RECORD
  5
23
330
1
100
AcDbSymbolTableRecord
100
AcDbBlockTableRecord
  2
*PAPER_SPACE0
  0
BLOCK_RECORD
  5
32A
330
1
100
AcDbSymbolTableRecord
100
AcDbBlockTableRecord
  2
*PAPER_SPACE1
  0
BLOCK_RECORD
  5
3CE
330
1
100
AcDbSymbolTableRecord
100
AcDbBlockTableRecord
  2
*PAPER_SPACE2
  0
BLOCK_RECORD
  5
3E2
330
1
100
AcDbSymbolTableRecord
100
AcDbBlockTableRecord
  2
*PAPER_SPACE3
  0
BLOCK_RECORD
  5
3F6
330
1
100
AcDbSymbolTableRecord
100
AcDbBlockTableRecord
  2
*PAPER_SPACE4
  0
BLOCK_RECORD
  5
4E2
330
1
100
AcDbSymbolTableRecord
100
AcDbBlockTableRecord
  2
*PAPER_SPACE5
  0
BLOCK_RECORD
  5
4F6
330
1
100
AcDbSymbolTableRecord
100
AcDbBlockTableRecord
  2
*PAPER_SPACE6
  0
BLOCK_RECORD
  5
671
330
1
100
AcDbSymbolTableRecord
100
AcDbBlockTableRecord
  2
*PAPER_SPACE7
  0
BLOCK_RECORD
  5
7F5
330
1
100
AcDbSymbolTableRecord
100
AcDbBlockTableRecord
  2
*PAPER_SPACE8
  0
ENDTAB
  0
ENDSEC
  0
SECTION
  2
BLOCKS
  0
BLOCK
  5
20
330
1F
100
AcDbEntity
  8
0
100
AcDbBlockBegin
  2
*MODEL_SPACE
 70
     0
 10
0.0
 20
0.0
 30
0.0
  3
*MODEL_SPACE
  1

  0
ENDBLK
  5
21
330
1F
100
AcDbEntity
  8
0
100
AcDbBlockEnd
  0
BLOCK
  5
1C
330
1B
100
AcDbEntity
 67
     1
  8
0
100
AcDbBlockBegin
  2
*PAPER_SPACE
 70
     0
 10
0.0
 20
0.0
 30
0.0
  3
*PAPER_SPACE
  1

  0
ENDBLK
  5
1D
330
1B
100
AcDbEntity
 67
     1
  8
0
100
AcDbBlockEnd
  0
BLOCK
  5
24
330
23
100
AcDbEntity
  8
0
100
AcDbBlockBegin
  2
*PAPER_SPACE0
 70
     0
 10
0.0
 20
0.0
 30
0.0
  3
*PAPER_SPACE0
  1

  0
LINE
  5
2DA
330
23
100
AcDbEntity
  8
0
  6
CONTINUOUS
 62
     7
100
AcDbLine
 10
-44.4021978022
 20
27.3849851642
 30
0.0
 11
-42.4065934066
 21
26.9962313421
 31
0.0
  0
LINE
  5
2DB
330
23
100
AcDbEntity
  8
0
  6
CONTINUOUS
 62
     7
100
AcDbLine
 10
-42.0
 20
26.5050336137
 30
0.0
 11
-42.0
 21
6.5
 31
0.0
  0
LINE
  5
2DC
330
23
100
AcDbEntity
  8
0
  6
CONTINUOUS
 62
     7
100
AcDbLine
 10
-41.5
 20
6.0
 30
0.0
 11
-38.0
 21
6.0
 31
0.0
  0
LINE
  5
2DD
330
23
100
AcDbEntity
  8
0
  6
CONTINUOUS
 62
     7
100
AcDbLine
 10
-37.5
 20
6.5
 30
0.0
 11
-37.5
 21
25.5289550967
 31
0.0
  0
LINE
  5
2DE
330
23
100
AcDbEntity
  8
0
  6
CONTINUOUS
 62
     7
100
AcDbLine
 10
-36.9186813187
 20
26.0222980525
 30
0.0
 11
-34.9230769231
 21
25.7024772802
 31
0.0
  0
LINE
  5
2DF
330
23
100
AcDbEntity
  8
0
  6
CONTINUOUS
 62
     7
100
AcDbLine
 10
-34.5
 20
25.2084298734
 30
0.0
 11
-34.5
 21
6.5
 31
0.0
  0
LINE
  5
2E0
330
23
100
AcDbEntity
  8
0
  6
CONTINUOUS
 62
     7
100
AcDbLine
 10
-34.0
 20
6.0
 30
0.0
 11
-30.5
 21
6.0
 31
0.0
  0
LINE
  5
2E1
330
23
100
AcDbEntity
  8
0
  6
CONTINUOUS
 62
     7
100
AcDbLine
 10
-30.0
 20
6.5
 30
0.0
 11
-30.0
 21
24.4207456347
 31
0.0
  0
LINE
  5
2E2
330
23
100
AcDbEntity
  8
0
  6
CONTINUOUS
 62
     7
100
AcDbLine
 10
-29.4351648352
 20
24.9165242157
 30
0.0
 11
-27.4395604396
 21
24.6645378044
 31
0.0
  0
LINE
  5
2E3
330
23
100
AcDbEntity
  8
0
  6
CONTINUOUS
 62
     7
100
AcDbLine
 10
-27.0
 20
24.1682041873
 30
0.0
 11
-27.0
 21
6.5
 31
0.0
  0
LINE
  5
2E4
330
23
100
AcDbEntity
  8
0
  6
CONTINUOUS
 62
     7
100
AcDbLine
 10
-26.5
 20
6.0
 30
0.0
 11
-23.0
 21
6.0
 31
0.0
  0
LINE
  5
2E5
330
23
100
AcDbEntity
  8
0
  6
CONTINUOUS
 62
     7
100
AcDbLine
 10
-22.5
 20
6.5
 30
0.0
 11
-22.5
 21
23.56623485
 31
0.0
  0
LINE
  5
2E6
330
23
100
AcDbEntity
  8
0
  6
CONTINUOUS
 62
     7
100
AcDbLine
 10
-21.9516483516
 20
24.0638914767
 30
0.0
 11
-19.956043956
 21
23.8788901725
 31
0.0
  0
LINE
  5
2E7
330
23
100
AcDbEntity
  8
0
  6
CONTINUOUS
 62
     7
100
AcDbLine
 10
-19.5
 20
23.3808260539
 30
0.0
 11
-19.5
 21
6.5
 31
0.0
  0
LINE
  5
2E8
330
23
100
AcDbEntity
  8
0
  6
CONTINUOUS
 62
     7
100
AcDbLine
 10
-19.0
 20
6.0
 30
0.0
 11
-15.5
 21
6.0
 31
0.0
  0
LINE
  5
2E9
330
23
100
AcDbEntity
  8
0
  6
CONTINUOUS
 62
     7
100
AcDbLine
 10
-15.0
 20
6.5
 30
0.0
 11
-15.0
 21
22.9625581539
 31
0.0
  0
LINE
  5
2EA
330
23
100
AcDbEntity
  8
0
  6
CONTINUOUS
 62
     7
100
AcDbLine
 10
-14.4681318681
 20
23.4615415426
 30
0.0
 11
-12.4725274725
 21
23.3429108577
 31
0.0
  0
LINE
  5
2EB
330
23
100
AcDbEntity
  8
0
  6
CONTINUOUS
 62
     7
100
AcDbLine
 10
-12.0
 20
22.843666168
 30
0.0
 11
-12.0
 21
6.5
 31
0.0
  0
LINE
  5
2EC
330
23
100
AcDbEntity
  8
0
  6
CONTINUOUS
 62
     7
100
AcDbLine
 10
-11.5
 20
6.0
 30
0.0
 11
11.5
 21
6.0
 31
0.0
  0
LINE
  5
2ED
330
23
100
AcDbEntity
  8
0
  6
CONTINUOUS
 62
     7
100
AcDbLine
 10
12.0
 20
6.5
 30
0.0
 11
12.0
 21
22.843666168
 31
0.0
  0
LINE
  5
2EE
330
23
100
AcDbEntity
  8
0
  6
CONTINUOUS
 62
     7
100
AcDbLine
 10
12.4725274725
 20
23.3429108577
 30
0.0
 11
14.4681318681
 21
23.4615415426
 31
0.0
  0
LINE
  5
2EF
330
23
100
AcDbEntity
  8
0
  6
CONTINUOUS
 62
     7
100
AcDbLine
 10
15.0
 20
22.9625581539
 30
0.0
 11
15.0
 21
6.5
 31
0.0
  0
LINE
  5
2F0
330
23
100
AcDbEntity
  8
0
  6
CONTINUOUS
 62
     7
100
AcDbLine
 10
15.5
 20
6.0
 30
0.0
 11
19.0
 21
6.0
 31
0.0
  0
LINE
  5
2F1
330
23
100
AcDbEntity
  8
0
  6
CONTINUOUS
 62
     7
100
AcDbLine
 10
19.5
 20
6.5
 30
0.0
 11
19.5
 21
23.3808260539
 31
0.0
  0
LINE
  5
2F2
330
23
100
AcDbEntity
  8
0
  6
CONTINUOUS
 62
     7
100
AcDbLine
 10
19.956043956
 20
23.8788901725
 30
0.0
 11
21.9516483516
 21
24.0638914767
 31
0.0
  0
LINE
  5
2F3
330
23
100
AcDbEntity
  8
0
  6
CONTINUOUS
 62
     7
100
AcDbLine
 10
22.5
 20
23.56623485
 30
0.0
 11
22.5
 21
6.5
 31
0.0
  0
LINE
  5
2F4
330
23
100
AcDbEntity
  8
0
  6
CONTINUOUS
 62
     7
100
AcDbLine
 10
23.0
 20
6.0
 30
0.0
 11
26.5
 21
6.0
 31
0.0
  0
LINE
  5
2F5
330
23
100
AcDbEntity
  8
0
  6
CONTINUOUS
 62
     7
100
AcDbLine
 10
27.0
 20
6.5
 30
0.0
 11
27.0
 21
24.1682041873
 31
0.0
  0
LINE
  5
2F6
330
23
100
AcDbEntity
  8
0
  6
CONTINUOUS
 62
     7
100
AcDbLine
 10
27.4395604396
 20
24.6645378044
 30
0.0
 11
29.4351648352
 21
24.9165242157
 31
0.0
  0
LINE
  5
2F7
330
23
100
AcDbEntity
  8
0
  6
CONTINUOUS
 62
     7
100
AcDbLine
 10
30.0
 20
24.4207456347
 30
0.0
 11
30.0
 21
6.5
 31
0.0
  0
LINE
  5
2F8
330
23
100
AcDbEntity
  8
0
  6
CONTINUOUS
 62
     7
100
AcDbLine
 10
30.5
 20
6.0
 30
0.0
 11
34.0
 21
6.0
 31
0.0
  0
LINE
  5
2F9
330
23
100
AcDbEntity
  8
0
  6
CONTINUOUS
 62
     7
100
AcDbLine
 10
34.5
 20
6.5
 30
0.0
 11
34.5
 21
25.2084298734
 31
0.0
  0
LINE
  5
2FA
330
23
100
AcDbEntity
  8
0
  6
CONTINUOUS
 62
     7
100
AcDbLine
 10
34.9230769231
 20
25.7024772802
 30
0.0
 11
36.9186813187
 21
26.0222980525
 31
0.0
  0
LINE
  5
2FB
330
23
100
AcDbEntity
  8
0
  6
CONTINUOUS
 62
     7
100
AcDbLine
 10
37.5
 20
25.5289550967
 30
0.0
 11
37.5
 21
6.5
 31
0.0
  0
LINE
  5
2FC
330
23
100
AcDbEntity
  8
0
  6
CONTINUOUS
 62
     7
100
AcDbLine
 10
38.0
 20
6.0
 30
0.0
 11
41.5
 21
6.0
 31
0.0
  0
LINE
  5
2FD
330
23
100
AcDbEntity
  8
0
  6
CONTINUOUS
 62
     7
100
AcDbLine
 10
42.0
 20
6.5
 30
0.0
 11
42.0
 21
26.5050336137
 31
0.0
  0
LINE
  5
2FE
330
23
100
AcDbEntity
  8
0
  6
CONTINUOUS
 62
     7
100
AcDbLine
 10
42.4065934066
 20
26.9962313421
 30
0.0
 11
44.4021978022
 21
27.3849851642
 31
0.0
  0
LINE
  5
2FF
330
23
100
AcDbEntity
  8
0
  6
CONTINUOUS
 62
     7
100
AcDbLine
 10
45.0
 20
26.8946437219
 30
0.0
 11
45.0
 21
0.5
 31
0.0
  0
LINE
  5
300
330
23
100
AcDbEntity
  8
0
  6
CONTINUOUS
 62
     7
100
AcDbLine
 10
44.5
 20
0.0
 30
0.0
 11
-44.5
 21
0.0
 31
0.0
  0
LINE
  5
301
330
23
100
AcDbEntity
  8
0
  6
CONTINUOUS
 62
     7
100
AcDbLine
 10
-45.0
 20
0.5
 30
0.0
 11
-45.0
 21
26.8946437219
 31
0.0
  0
ARC
  5
302
330
23
100
AcDbEntity
  8
0
  6
CONTINUOUS
 62
     7
100
AcDbCircle
 10
-44.5
 20
26.8946437219
 30
0.0
 40
0.5000000000001066
100
AcDbArc
 50
78.7199671432
 51
180.0
  0
ARC
  5
303
330
23
100
AcDbEntity
  8
0
  6
CONTINUOUS
 62
     7
100
AcDbCircle
 10
-42.5
 20
26.5050336137
 30
0.0
 40
0.5000000000000148
100
AcDbArc
 50
0.0
 51
79.2331364679
  0
ARC
  5
304
330
23
100
AcDbEntity
  8
0
  6
CONTINUOUS
 62
     7
100
AcDbCircle
 10
-41.5
 20
6.5
 30
0.0
 40
0.4999999999999947
100
AcDbArc
 50
180.0
 51
270.0
  0
ARC
  5
305
330
23
100
AcDbEntity
  8
0
  6
CONTINUOUS
 62
     7
100
AcDbCircle
 10
-38.0
 20
6.5
 30
0.0
 40
0.4999999999999938
100
AcDbArc
 50
270.0
 51
0.0
  0
ARC
  5
306
330
23
100
AcDbEntity
  8
0
  6
CONTINUOUS
 62
     7
100
AcDbCircle
 10
-37.0
 20
25.5289550967
 30
0.0
 40
0.5000000000002061
100
AcDbArc
 50
80.6399885347
 51
180.0
  0
ARC
  5
307
330
23
100
AcDbEntity
  8
0
  6
CONTINUOUS
 62
     7
100
AcDbCircle
 10
-35.0
 20
25.2084298734
 30
0.0
 40
0.5000000000000284
100
AcDbArc
 50
0.0
 51
81.1501169016
  0
ARC
  5
308
330
23
100
AcDbEntity
  8
0
  6
CONTINUOUS
 62
     7
100
AcDbCircle
 10
-34.0
 20
6.5
 30
0.0
 40
0.4999999999999947
100
AcDbArc
 50
180.0
 51
270.0
  0
ARC
  5
309
330
23
100
AcDbEntity
  8
0
  6
CONTINUOUS
 62
     7
100
AcDbCircle
 10
-30.5
 20
6.5
 30
0.0
 40
0.5000000000000018
100
AcDbArc
 50
270.0
 51
0.0
  0
ARC
  5
30A
330
23
100
AcDbEntity
  8
0
  6
CONTINUOUS
 62
     7
100
AcDbCircle
 10
-29.5
 20
24.4207456347
 30
0.0
 40
0.5000000000001137
100
AcDbArc
 50
82.5494576489
 51
180.0
  0
ARC
  5
30B
330
23
100
AcDbEntity
  8
0
  6
CONTINUOUS
 62
     7
100
AcDbCircle
 10
-27.5
 20
24.1682041873
 30
0.0
 40
0.5000000000000352
100
AcDbArc
 50
0.0
 51
83.0571581546
  0
ARC
  5
30C
330
23
100
AcDbEntity
  8
0
  6
CONTINUOUS
 62
     7
100
AcDbCircle
 10
-26.5
 20
6.5
 30
0.0
 40
0.5000000000000009
100
AcDbArc
 50
180.0
 51
270.0
  0
ARC
  5
30D
330
23
100
AcDbEntity
  8
0
  6
CONTINUOUS
 62
     7
100
AcDbCircle
 10
-23.0
 20
6.5
 30
0.0
 40
0.5000000000000036
100
AcDbArc
 50
270.0
 51
0.0
  0
ARC
  5
30E
330
23
100
AcDbEntity
  8
0
  6
CONTINUOUS
 62
     7
100
AcDbCircle
 10
-22.0
 20
23.56623485
 30
0.0
 40
0.5000000000001187
100
AcDbArc
 50
84.4506370361
 51
180.0
  0
ARC
  5
30F
330
23
100
AcDbEntity
  8
0
  6
CONTINUOUS
 62
     7
100
AcDbCircle
 10
-20.0
 20
23.3808260539
 30
0.0
 40
0.500000000000005
100
AcDbArc
 50
0.0
 51
84.9564976311
  0
ARC
  5
310
330
23
100
AcDbEntity
  8
0
  6
CONTINUOUS
 62
     7
100
AcDbCircle
 10
-19.0
 20
6.5
 30
0.0
 40
0.5000000000000036
100
AcDbArc
 50
180.0
 51
270.0
  0
ARC
  5
311
330
23
100
AcDbEntity
  8
0
  6
CONTINUOUS
 62
     7
100
AcDbCircle
 10
-15.5
 20
6.5
 30
0.0
 40
0.5
100
AcDbArc
 50
270.0
 51
0.0
  0
ARC
  5
312
330
23
100
AcDbEntity
  8
0
  6
CONTINUOUS
 62
     7
100
AcDbCircle
 10
-14.5
 20
22.9625581539
 30
0.0
 40
0.5000000000001403
100
AcDbArc
 50
86.3457040844
 51
180.0
  0
ARC
  5
313
330
23
100
AcDbEntity
  8
0
  6
CONTINUOUS
 62
     7
100
AcDbCircle
 10
-12.5
 20
22.843666168
 30
0.0
 40
0.499999999999968
100
AcDbArc
 50
360.0
 51
86.8502940833
  0
ARC
  5
314
330
23
100
AcDbEntity
  8
0
  6
CONTINUOUS
 62
     7
100
AcDbCircle
 10
-11.5
 20
6.5
 30
0.0
 40
0.5000000000000018
100
AcDbArc
 50
180.0
 51
270.0
  0
ARC
  5
315
330
23
100
AcDbEntity
  8
0
  6
CONTINUOUS
 62
     7
100
AcDbCircle
 10
11.5
 20
6.5
 30
0.0
 40
0.5000000000000036
100
AcDbArc
 50
270.0
 51
0.0
  0
ARC
  5
316
330
23
100
AcDbEntity
  8
0
  6
CONTINUOUS
 62
     7
100
AcDbCircle
 10
12.5
 20
22.843666168
 30
0.0
 40
0.500000000000153
100
AcDbArc
 50
93.1497059167
 51
180.0
  0
ARC
  5
317
330
23
100
AcDbEntity
  8
0
  6
CONTINUOUS
 62
     7
100
AcDbCircle
 10
14.5
 20
22.9625581539
 30
0.0
 40
0.5000000000000391
100
AcDbArc
 50
0.0
 51
93.6542959156
  0
ARC
  5
318
330
23
100
AcDbEntity
  8
0
  6
CONTINUOUS
 62
     7
100
AcDbCircle
 10
15.5
 20
6.5
 30
0.0
 40
0.4999999999999991
100
AcDbArc
 50
180.0
 51
270.0
  0
ARC
  5
319
330
23
100
AcDbEntity
  8
0
  6
CONTINUOUS
 62
     7
100
AcDbCircle
 10
19.0
 20
6.5
 30
0.0
 40
0.5000000000000036
100
AcDbArc
 50
270.0
 51
0.0
  0
ARC
  5
31A
330
23
100
AcDbEntity
  8
0
  6
CONTINUOUS
 62
     7
100
AcDbCircle
 10
20.0
 20
23.3808260539
 30
0.0
 40
0.500000000000135
100
AcDbArc
 50
95.043502369
 51
180.0
  0
ARC
  5
31B
330
23
100
AcDbEntity
  8
0
  6
CONTINUOUS
 62
     7
100
AcDbCircle
 10
22.0
 20
23.56623485
 30
0.0
 40
0.499999999999994
100
AcDbArc
 50
0.0
 51
95.5493629639
  0
ARC
  5
31C
330
23
100
AcDbEntity
  8
0
  6
CONTINUOUS
 62
     7
100
AcDbCircle
 10
23.0
 20
6.5
 30
0.0
 40
0.5000000000000009
100
AcDbArc
 50
180.0
 51
270.0
  0
ARC
  5
31D
330
23
100
AcDbEntity
  8
0
  6
CONTINUOUS
 62
     7
100
AcDbCircle
 10
26.5
 20
6.5
 30
0.0
 40
0.5000000000000036
100
AcDbArc
 50
270.0
 51
0.0
  0
ARC
  5
31E
330
23
100
AcDbEntity
  8
0
  6
CONTINUOUS
 62
     7
100
AcDbCircle
 10
27.5
 20
24.1682041873
 30
0.0
 40
0.5000000000002167
100
AcDbArc
 50
96.9428418454
 51
180.0
  0
ARC
  5
31F
330
23
100
AcDbEntity
  8
0
  6
CONTINUOUS
 62
     7
100
AcDbCircle
 10
29.5
 20
24.4207456347
 30
0.0
 40
0.5000000000000391
100
AcDbArc
 50
0.0
 51
97.4505423511
  0
ARC
  5
320
330
23
100
AcDbEntity
  8
0
  6
CONTINUOUS
 62
     7
100
AcDbCircle
 10
30.5
 20
6.5
 30
0.0
 40
0.5000000000000009
100
AcDbArc
 50
180.0
 51
270.0
  0
ARC
  5
321
330
23
100
AcDbEntity
  8
0
  6
CONTINUOUS
 62
     7
100
AcDbCircle
 10
34.0
 20
6.5
 30
0.0
 40
0.4999999999999938
100
AcDbArc
 50
270.0
 51
0.0
  0
ARC
  5
322
330
23
100
AcDbEntity
  8
0
  6
CONTINUOUS
 62
     7
100
AcDbCircle
 10
35.0
 20
25.2084298734
 30
0.0
 40
0.5000000000001563
100
AcDbArc
 50
98.8498830984
 51
180.0
  0
ARC
  5
323
330
23
100
AcDbEntity
  8
0
  6
CONTINUOUS
 62
     7
100
AcDbCircle
 10
37.0
 20
25.5289550967
 30
0.0
 40
0.5000000000000446
100
AcDbArc
 50
0.0
 51
99.3600114653
  0
ARC
  5
324
330
23
100
AcDbEntity
  8
0
  6
CONTINUOUS
 62
     7
100
AcDbCircle
 10
38.0
 20
6.5
 30
0.0
 40
0.4999999999999947
100
AcDbArc
 50
180.0
 51
270.0
  0
ARC
  5
325
330
23
100
AcDbEntity
  8
0
  6
CONTINUOUS
 62
     7
100
AcDbCircle
 10
41.5
 20
6.5
 30
0.0
 40
0.4999999999999938
100
AcDbArc
 50
270.0
 51
0.0
  0
ARC
  5
326
330
23
100
AcDbEntity
  8
0
  6
CONTINUOUS
 62
     7
100
AcDbCircle
 10
42.5
 20
26.5050336137
 30
0.0
 40
0.5000000000002558
100
AcDbArc
 50
100.7668635321
 51
180.0
  0
ARC
  5
327
330
23
100
AcDbEntity
  8
0
  6
CONTINUOUS
 62
     7
100
AcDbCircle
 10
44.5
 20
26.8946437219
 30
0.0
 40
0.5000000000000142
100
AcDbArc
 50
0.0
 51
101.2800328568
  0
ARC
  5
328
330
23
100
AcDbEntity
  8
0
  6
CONTINUOUS
 62
     7
100
AcDbCircle
 10
44.5
 20
0.5
 30
0.0
 40
0.5000000000000071
100
AcDbArc
 50
270.0
 51
0.0
  0
ARC
  5
329
330
23
100
AcDbEntity
  8
0
  6
CONTINUOUS
 62
     7
100
AcDbCircle
 10
-44.5
 20
0.5
 30
0.0
 40
0.5000000000000071
100
AcDbArc
 50
180.0
 51
270.0
  0
VIEWPORT
  5
97B
330
23
100
AcDbEntity
  8
0
100
AcDbViewport
 10
0.0
 20
0.0
 30
0.0
 40
205.6
 41
156.0
 68
     1
 69
     1
1001
ACAD
1000
MVIEW
1002
{
1070
    16
1010
0.0
1020
0.0
1030
0.0
1010
0.0
1020
0.0
1030
1.0
1040
0.0
1040
596.5052109039
1040
353.5524304769
1040
-192.8681346605
1040
50.0
1040
0.0
1040
0.0
1070
     0
1070
   100
1070
     0
1070
     3
1070
     0
1070
     0
1070
     0
1070
     0
1040
0.0
1040
0.0
1040
0.0
1040
10.0
1040
10.0
1040
10.0
1040
10.0
1070
     0
1002
{
1002
}
1002
}
  0
ENDBLK
  5
25
330
23
100
AcDbEntity
  8
0
100
AcDbBlockEnd
  0
BLOCK
  5
32C
330
32A
100
AcDbEntity
  8
0
100
AcDbBlockBegin
  2
*PAPER_SPACE1
 70
     0
 10
0.0
 20
0.0
 30
0.0
  3
*PAPER_SPACE1
  1

  0
LINE
  5
37E
330
32A
100
AcDbEntity
  8
0
  6
CONTINUOUS
 62
     7
100
AcDbLine
 10
44.4021978022
 20
27.3849851642
 30
0.0
 11
42.4065934066
 21
26.9962313421
 31
0.0
  0
LINE
  5
37F
330
32A
100
AcDbEntity
  8
0
  6
CONTINUOUS
 62
     7
100
AcDbLine
 10
42.0
 20
26.5050336137
 30
0.0
 11
42.0
 21
6.5
 31
0.0
  0
LINE
  5
380
330
32A
100
AcDbEntity
  8
0
  6
CONTINUOUS
 62
     7
100
AcDbLine
 10
41.5
 20
6.0
 30
0.0
 11
38.0
 21
6.0
 31
0.0
  0
LINE
  5
381
330
32A
100
AcDbEntity
  8
0
  6
CONTINUOUS
 62
     7
100
AcDbLine
 10
37.5
 20
6.5
 30
0.0
 11
37.5
 21
25.5289550967
 31
0.0
  0
LINE
  5
382
330
32A
100
AcDbEntity
  8
0
  6
CONTINUOUS
 62
     7
100
AcDbLine
 10
36.9186813187
 20
26.0222980525
 30
0.0
 11
34.9230769231
 21
25.7024772802
 31
0.0
  0
LINE
  5
383
330
32A
100
AcDbEntity
  8
0
  6
CONTINUOUS
 62
     7
100
AcDbLine
 10
34.5
 20
25.2084298734
 30
0.0
 11
34.5
 21
6.5
 31
0.0
  0
LINE
  5
384
330
32A
100
AcDbEntity
  8
0
  6
CONTINUOUS
 62
     7
100
AcDbLine
 10
34.0
 20
6.0
 30
0.0
 11
30.5
 21
6.0
 31
0.0
  0
LINE
  5
385
330
32A
100
AcDbEntity
  8
0
  6
CONTINUOUS
 62
     7
100
AcDbLine
 10
30.0
 20
6.5
 30
0.0
 11
30.0
 21
24.4207456347
 31
0.0
  0
LINE
  5
386
330
32A
100
AcDbEntity
  8
0
  6
CONTINUOUS
 62
     7
100
AcDbLine
 10
29.4351648352
 20
24.9165242157
 30
0.0
 11
27.4395604396
 21
24.6645378044
 31
0.0
  0
LINE
  5
387
330
32A
100
AcDbEntity
  8
0
  6
CONTINUOUS
 62
     7
100
AcDbLine
 10
27.0
 20
24.1682041873
 30
0.0
 11
27.0
 21
6.5
 31
0.0
  0
LINE
  5
388
330
32A
100
AcDbEntity
  8
0
  6
CONTINUOUS
 62
     7
100
AcDbLine
 10
26.5
 20
6.0
 30
0.0
 11
23.0
 21
6.0
 31
0.0
  0
LINE
  5
389
330
32A
100
AcDbEntity
  8
0
  6
CONTINUOUS
 62
     7
100
AcDbLine
 10
22.5
 20
6.5
 30
0.0
 11
22.5
 21
23.56623485
 31
0.0
  0
LINE
  5
38A
330
32A
100
AcDbEntity
  8
0
  6
CONTINUOUS
 62
     7
100
AcDbLine
 10
21.9516483516
 20
24.0638914767
 30
0.0
 11
19.956043956
 21
23.8788901725
 31
0.0
  0
LINE
  5
38B
330
32A
100
AcDbEntity
  8
0
  6
CONTINUOUS
 62
     7
100
AcDbLine
 10
19.5
 20
23.3808260539
 30
0.0
 11
19.5
 21
6.5
 31
0.0
  0
LINE
  5
38C
330
32A
100
AcDbEntity
  8
0
  6
CONTINUOUS
 62
     7
100
AcDbLine
 10
19.0
 20
6.0
 30
0.0
 11
15.5
 21
6.0
 31
0.0
  0
LINE
  5
38D
330
32A
100
AcDbEntity
  8
0
  6
CONTINUOUS
 62
     7
100
AcDbLine
 10
15.0
 20
6.5
 30
0.0
 11
15.0
 21
22.9625581539
 31
0.0
  0
LINE
  5
38E
330
32A
100
AcDbEntity
  8
0
  6
CONTINUOUS
 62
     7
100
AcDbLine
 10
14.4681318681
 20
23.4615415426
 30
0.0
 11
12.4725274725
 21
23.3429108577
 31
0.0
  0
LINE
  5
38F
330
32A
100
AcDbEntity
  8
0
  6
CONTINUOUS
 62
     7
100
AcDbLine
 10
12.0
 20
22.843666168
 30
0.0
 11
12.0
 21
6.5
 31
0.0
  0
LINE
  5
390
330
32A
100
AcDbEntity
  8
0
  6
CONTINUOUS
 62
     7
100
AcDbLine
 10
11.5
 20
6.0
 30
0.0
 11
-11.5
 21
6.0
 31
0.0
  0
LINE
  5
391
330
32A
100
AcDbEntity
  8
0
  6
CONTINUOUS
 62
     7
100
AcDbLine
 10
-12.0
 20
6.5
 30
0.0
 11
-12.0
 21
22.843666168
 31
0.0
  0
LINE
  5
392
330
32A
100
AcDbEntity
  8
0
  6
CONTINUOUS
 62
     7
100
AcDbLine
 10
-12.4725274725
 20
23.3429108577
 30
0.0
 11
-14.4681318681
 21
23.4615415426
 31
0.0
  0
LINE
  5
393
330
32A
100
AcDbEntity
  8
0
  6
CONTINUOUS
 62
     7
100
AcDbLine
 10
-15.0
 20
22.9625581539
 30
0.0
 11
-15.0
 21
6.5
 31
0.0
  0
LINE
  5
394
330
32A
100
AcDbEntity
  8
0
  6
CONTINUOUS
 62
     7
100
AcDbLine
 10
-15.5
 20
6.0
 30
0.0
 11
-19.0
 21
6.0
 31
0.0
  0
LINE
  5
395
330
32A
100
AcDbEntity
  8
0
  6
CONTINUOUS
 62
     7
100
AcDbLine
 10
-19.5
 20
6.5
 30
0.0
 11
-19.5
 21
23.3808260539
 31
0.0
  0
LINE
  5
396
330
32A
100
AcDbEntity
  8
0
  6
CONTINUOUS
 62
     7
100
AcDbLine
 10
-19.956043956
 20
23.8788901725
 30
0.0
 11
-21.9516483516
 21
24.0638914767
 31
0.0
  0
LINE
  5
397
330
32A
100
AcDbEntity
  8
0
  6
CONTINUOUS
 62
     7
100
AcDbLine
 10
-22.5
 20
23.56623485
 30
0.0
 11
-22.5
 21
6.5
 31
0.0
  0
LINE
  5
398
330
32A
100
AcDbEntity
  8
0
  6
CONTINUOUS
 62
     7
100
AcDbLine
 10
-23.0
 20
6.0
 30
0.0
 11
-26.5
 21
6.0
 31
0.0
  0
LINE
  5
399
330
32A
100
AcDbEntity
  8
0
  6
CONTINUOUS
 62
     7
100
AcDbLine
 10
-27.0
 20
6.5
 30
0.0
 11
-27.0
 21
24.1682041873
 31
0.0
  0
LINE
  5
39A
330
32A
100
AcDbEntity
  8
0
  6
CONTINUOUS
 62
     7
100
AcDbLine
 10
-27.4395604396
 20
24.6645378044
 30
0.0
 11
-29.4351648352
 21
24.9165242157
 31
0.0
  0
LINE
  5
39B
330
32A
100
AcDbEntity
  8
0
  6
CONTINUOUS
 62
     7
100
AcDbLine
 10
-30.0
 20
24.4207456347
 30
0.0
 11
-30.0
 21
6.5
 31
0.0
  0
LINE
  5
39C
330
32A
100
AcDbEntity
  8
0
  6
CONTINUOUS
 62
     7
100
AcDbLine
 10
-30.5
 20
6.0
 30
0.0
 11
-34.0
 21
6.0
 31
0.0
  0
LINE
  5
39D
330
32A
100
AcDbEntity
  8
0
  6
CONTINUOUS
 62
     7
100
AcDbLine
 10
-34.5
 20
6.5
 30
0.0
 11
-34.5
 21
25.2084298734
 31
0.0
  0
LINE
  5
39E
330
32A
100
AcDbEntity
  8
0
  6
CONTINUOUS
 62
     7
100
AcDbLine
 10
-34.9230769231
 20
25.7024772802
 30
0.0
 11
-36.9186813187
 21
26.0222980525
 31
0.0
  0
LINE
  5
39F
330
32A
100
AcDbEntity
  8
0
  6
CONTINUOUS
 62
     7
100
AcDbLine
 10
-37.5
 20
25.5289550967
 30
0.0
 11
-37.5
 21
6.5
 31
0.0
  0
LINE
  5
3A0
330
32A
100
AcDbEntity
  8
0
  6
CONTINUOUS
 62
     7
100
AcDbLine
 10
-38.0
 20
6.0
 30
0.0
 11
-41.5
 21
6.0
 31
0.0
  0
LINE
  5
3A1
330
32A
100
AcDbEntity
  8
0
  6
CONTINUOUS
 62
     7
100
AcDbLine
 10
-42.0
 20
6.5
 30
0.0
 11
-42.0
 21
26.5050336137
 31
0.0
  0
LINE
  5
3A2
330
32A
100
AcDbEntity
  8
0
  6
CONTINUOUS
 62
     7
100
AcDbLine
 10
-42.4065934066
 20
26.9962313421
 30
0.0
 11
-44.4021978022
 21
27.3849851642
 31
0.0
  0
LINE
  5
3A3
330
32A
100
AcDbEntity
  8
0
  6
CONTINUOUS
 62
     7
100
AcDbLine
 10
-45.0
 20
26.8946437219
 30
0.0
 11
-45.0
 21
0.5
 31
0.0
  0
LINE
  5
3A4
330
32A
100
AcDbEntity
  8
0
  6
CONTINUOUS
 62
     7
100
AcDbLine
 10
-44.5
 20
0.0
 30
0.0
 11
44.5
 21
0.0
 31
0.0
  0
LINE
  5
3A5
330
32A
100
AcDbEntity
  8
0
  6
CONTINUOUS
 62
     7
100
AcDbLine
 10
45.0
 20
0.5
 30
0.0
 11
45.0
 21
26.8946437219
 31
0.0
  0
ARC
  5
3A6
330
32A
100
AcDbEntity
  8
0
  6
CONTINUOUS
 62
     7
100
AcDbCircle
 10
44.5
 20
26.8946437219
 30
0.0
 40
0.5000000000001066
100
AcDbArc
 50
360.0
 51
101.2800328568
  0
ARC
  5
3A7
330
32A
100
AcDbEntity
  8
0
  6
CONTINUOUS
 62
     7
100
AcDbCircle
 10
42.5
 20
26.5050336137
 30
0.0
 40
0.5000000000000148
100
AcDbArc
 50
100.7668635321
 51
180.0
  0
ARC
  5
3A8
330
32A
100
AcDbEntity
  8
0
  6
CONTINUOUS
 62
     7
100
AcDbCircle
 10
41.5
 20
6.5
 30
0.0
 40
0.4999999999999947
100
AcDbArc
 50
270.0
 51
0.0
  0
ARC
  5
3A9
330
32A
100
AcDbEntity
  8
0
  6
CONTINUOUS
 62
     7
100
AcDbCircle
 10
38.0
 20
6.5
 30
0.0
 40
0.4999999999999938
100
AcDbArc
 50
180.0
 51
270.0
  0
ARC
  5
3AA
330
32A
100
AcDbEntity
  8
0
  6
CONTINUOUS
 62
     7
100
AcDbCircle
 10
37.0
 20
25.5289550967
 30
0.0
 40
0.5000000000002061
100
AcDbArc
 50
0.0
 51
99.3600114653
  0
ARC
  5
3AB
330
32A
100
AcDbEntity
  8
0
  6
CONTINUOUS
 62
     7
100
AcDbCircle
 10
35.0
 20
25.2084298734
 30
0.0
 40
0.5000000000000284
100
AcDbArc
 50
98.8498830984
 51
180.0
  0
ARC
  5
3AC
330
32A
100
AcDbEntity
  8
0
  6
CONTINUOUS
 62
     7
100
AcDbCircle
 10
34.0
 20
6.5
 30
0.0
 40
0.4999999999999947
100
AcDbArc
 50
270.0
 51
0.0
  0
ARC
  5
3AD
330
32A
100
AcDbEntity
  8
0
  6
CONTINUOUS
 62
     7
100
AcDbCircle
 10
30.5
 20
6.5
 30
0.0
 40
0.5000000000000018
100
AcDbArc
 50
180.0
 51
270.0
  0
ARC
  5
3AE
330
32A
100
AcDbEntity
  8
0
  6
CONTINUOUS
 62
     7
100
AcDbCircle
 10
29.5
 20
24.4207456347
 30
0.0
 40
0.5000000000001137
100
AcDbArc
 50
360.0
 51
97.4505423511
  0
ARC
  5
3AF
330
32A
100
AcDbEntity
  8
0
  6
CONTINUOUS
 62
     7
100
AcDbCircle
 10
27.5
 20
24.1682041873
 30
0.0
 40
0.5000000000000352
100
AcDbArc
 50
96.9428418454
 51
180.0
  0
ARC
  5
3B0
330
32A
100
AcDbEntity
  8
0
  6
CONTINUOUS
 62
     7
100
AcDbCircle
 10
26.5
 20
6.5
 30
0.0
 40
0.5000000000000009
100
AcDbArc
 50
270.0
 51
0.0
  0
ARC
  5
3B1
330
32A
100
AcDbEntity
  8
0
  6
CONTINUOUS
 62
     7
100
AcDbCircle
 10
23.0
 20
6.5
 30
0.0
 40
0.5000000000000036
100
AcDbArc
 50
180.0
 51
270.0
  0
ARC
  5
3B2
330
32A
100
AcDbEntity
  8
0
  6
CONTINUOUS
 62
     7
100
AcDbCircle
 10
22.0
 20
23.56623485
 30
0.0
 40
0.5000000000001187
100
AcDbArc
 50
360.0
 51
95.5493629639
  0
ARC
  5
3B3
330
32A
100
AcDbEntity
  8
0
  6
CONTINUOUS
 62
     7
100
AcDbCircle
 10
20.0
 20
23.3808260539
 30
0.0
 40
0.500000000000005
100
AcDbArc
 50
95.0435023689
 51
180.0
  0
ARC
  5
3B4
330
32A
100
AcDbEntity
  8
0
  6
CONTINUOUS
 62
     7
100
AcDbCircle
 10
19.0
 20
6.5
 30
0.0
 40
0.5000000000000036
100
AcDbArc
 50
270.0
 51
0.0
  0
ARC
  5
3B5
330
32A
100
AcDbEntity
  8
0
  6
CONTINUOUS
 62
     7
100
AcDbCircle
 10
15.5
 20
6.5
 30
0.0
 40
0.5
100
AcDbArc
 50
180.0
 51
270.0
  0
ARC
  5
3B6
330
32A
100
AcDbEntity
  8
0
  6
CONTINUOUS
 62
     7
100
AcDbCircle
 10
14.5
 20
22.9625581539
 30
0.0
 40
0.5000000000001403
100
AcDbArc
 50
360.0
 51
93.6542959156
  0
ARC
  5
3B7
330
32A
100
AcDbEntity
  8
0
  6
CONTINUOUS
 62
     7
100
AcDbCircle
 10
12.5
 20
22.843666168
 30
0.0
 40
0.499999999999968
100
AcDbArc
 50
93.1497059167
 51
180.0
  0
ARC
  5
3B8
330
32A
100
AcDbEntity
  8
0
  6
CONTINUOUS
 62
     7
100
AcDbCircle
 10
11.5
 20
6.5
 30
0.0
 40
0.5000000000000018
100
AcDbArc
 50
270.0
 51
0.0
  0
ARC
  5
3B9
330
32A
100
AcDbEntity
  8
0
  6
CONTINUOUS
 62
     7
100
AcDbCircle
 10
-11.5
 20
6.5
 30
0.0
 40
0.5000000000000036
100
AcDbArc
 50
180.0
 51
270.0
  0
ARC
  5
3BA
330
32A
100
AcDbEntity
  8
0
  6
CONTINUOUS
 62
     7
100
AcDbCircle
 10
-12.5
 20
22.843666168
 30
0.0
 40
0.500000000000153
100
AcDbArc
 50
360.0
 51
86.8502940833
  0
ARC
  5
3BB
330
32A
100
AcDbEntity
  8
0
  6
CONTINUOUS
 62
     7
100
AcDbCircle
 10
-14.5
 20
22.9625581539
 30
0.0
 40
0.5000000000000391
100
AcDbArc
 50
86.3457040844
 51
180.0
  0
ARC
  5
3BC
330
32A
100
AcDbEntity
  8
0
  6
CONTINUOUS
 62
     7
100
AcDbCircle
 10
-15.5
 20
6.5
 30
0.0
 40
0.4999999999999991
100
AcDbArc
 50
270.0
 51
0.0
  0
ARC
  5
3BD
330
32A
100
AcDbEntity
  8
0
  6
CONTINUOUS
 62
     7
100
AcDbCircle
 10
-19.0
 20
6.5
 30
0.0
 40
0.5000000000000036
100
AcDbArc
 50
180.0
 51
270.0
  0
ARC
  5
3BE
330
32A
100
AcDbEntity
  8
0
  6
CONTINUOUS
 62
     7
100
AcDbCircle
 10
-20.0
 20
23.3808260539
 30
0.0
 40
0.500000000000135
100
AcDbArc
 50
360.0
 51
84.956497631
  0
ARC
  5
3BF
330
32A
100
AcDbEntity
  8
0
  6
CONTINUOUS
 62
     7
100
AcDbCircle
 10
-22.0
 20
23.56623485
 30
0.0
 40
0.499999999999994
100
AcDbArc
 50
84.4506370361
 51
180.0
  0
ARC
  5
3C0
330
32A
100
AcDbEntity
  8
0
  6
CONTINUOUS
 62
     7
100
AcDbCircle
 10
-23.0
 20
6.5
 30
0.0
 40
0.5000000000000009
100
AcDbArc
 50
270.0
 51
0.0
  0
ARC
  5
3C1
330
32A
100
AcDbEntity
  8
0
  6
CONTINUOUS
 62
     7
100
AcDbCircle
 10
-26.5
 20
6.5
 30
0.0
 40
0.5000000000000036
100
AcDbArc
 50
180.0
 51
270.0
  0
ARC
  5
3C2
330
32A
100
AcDbEntity
  8
0
  6
CONTINUOUS
 62
     7
100
AcDbCircle
 10
-27.5
 20
24.1682041873
 30
0.0
 40
0.5000000000002167
100
AcDbArc
 50
360.0
 51
83.0571581546
  0
ARC
  5
3C3
330
32A
100
AcDbEntity
  8
0
  6
CONTINUOUS
 62
     7
100
AcDbCircle
 10
-29.5
 20
24.4207456347
 30
0.0
 40
0.5000000000000391
100
AcDbArc
 50
82.5494576489
 51
180.0
  0
ARC
  5
3C4
330
32A
100
AcDbEntity
  8
0
  6
CONTINUOUS
 62
     7
100
AcDbCircle
 10
-30.5
 20
6.5
 30
0.0
 40
0.5000000000000009
100
AcDbArc
 50
270.0
 51
0.0
  0
ARC
  5
3C5
330
32A
100
AcDbEntity
  8
0
  6
CONTINUOUS
 62
     7
100
AcDbCircle
 10
-34.0
 20
6.5
 30
0.0
 40
0.4999999999999938
100
AcDbArc
 50
180.0
 51
270.0
  0
ARC
  5
3C6
330
32A
100
AcDbEntity
  8
0
  6
CONTINUOUS
 62
     7
100
AcDbCircle
 10
-35.0
 20
25.2084298734
 30
0.0
 40
0.5000000000001563
100
AcDbArc
 50
360.0
 51
81.1501169016
  0
ARC
  5
3C7
330
32A
100
AcDbEntity
  8
0
  6
CONTINUOUS
 62
     7
100
AcDbCircle
 10
-37.0
 20
25.5289550967
 30
0.0
 40
0.5000000000000446
100
AcDbArc
 50
80.6399885347
 51
180.0
  0
ARC
  5
3C8
330
32A
100
AcDbEntity
  8
0
  6
CONTINUOUS
 62
     7
100
AcDbCircle
 10
-38.0
 20
6.5
 30
0.0
 40
0.4999999999999947
100
AcDbArc
 50
270.0
 51
0.0
  0
ARC
  5
3C9
330
32A
100
AcDbEntity
  8
0
  6
CONTINUOUS
 62
     7
100
AcDbCircle
 10
-41.5
 20
6.5
 30
0.0
 40
0.4999999999999938
100
AcDbArc
 50
180.0
 51
270.0
  0
ARC
  5
3CA
330
32A
100
AcDbEntity
  8
0
  6
CONTINUOUS
 62
     7
100
AcDbCircle
 10
-42.5
 20
26.5050336137
 30
0.0
 40
0.5000000000002558
100
AcDbArc
 50
0.0
 51
79.2331364679
  0
ARC
  5
3CB
330
32A
100
AcDbEntity
  8
0
  6
CONTINUOUS
 62
     7
100
AcDbCircle
 10
-44.5
 20
26.8946437219
 30
0.0
 40
0.5000000000000142
100
AcDbArc
 50
78.7199671432
 51
180.0
  0
ARC
  5
3CC
330
32A
100
AcDbEntity
  8
0
  6
CONTINUOUS
 62
     7
100
AcDbCircle
 10
-44.5
 20
0.5
 30
0.0
 40
0.5000000000000071
100
AcDbArc
 50
180.0
 51
270.0
  0
ARC
  5
3CD
330
32A
100
AcDbEntity
  8
0
  6
CONTINUOUS
 62
     7
100
AcDbCircle
 10
44.5
 20
0.5
 30
0.0
 40
0.5000000000000071
100
AcDbArc
 50
270.0
 51
0.0
  0
VIEWPORT
  5
97D
330
32A
100
AcDbEntity
  8
0
100
AcDbViewport
 10
0.0
 20
0.0
 30
0.0
 40
205.6
 41
156.0
 68
     1
 69
     1
1001
ACAD
1000
MVIEW
1002
{
1070
    16
1010
0.0
1020
0.0
1030
0.0
1010
0.0
1020
0.0
1030
1.0
1040
0.0
1040
596.5052109039
1040
353.5524304769
1040
-192.8681346605
1040
50.0
1040
0.0
1040
0.0
1070
     0
1070
   100
1070
     0
1070
     3
1070
     0
1070
     0
1070
     0
1070
     0
1040
0.0
1040
0.0
1040
0.0
1040
10.0
1040
10.0
1040
10.0
1040
10.0
1070
     0
1002
{
1002
}
1002
}
  0
ENDBLK
  5
32D
330
32A
100
AcDbEntity
  8
0
100
AcDbBlockEnd
  0
BLOCK
  5
3D0
330
3CE
100
AcDbEntity
  8
0
100
AcDbBlockBegin
  2
*PAPER_SPACE2
 70
     0
 10
0.0
 20
0.0
 30
0.0
  3
*PAPER_SPACE2
  1

  0
LINE
  5
3DC
330
3CE
100
AcDbEntity
  8
0
  6
CONTINUOUS
 62
     7
100
AcDbLine
 10
1000.0
 20
27.3946437219
 30
0.0
 11
0.0
 21
27.3946437219
 31
0.0
  0
LINE
  5
3DD
330
3CE
100
AcDbEntity
  8
0
  6
CONTINUOUS
 62
     7
100
AcDbLine
 10
1000.0
 20
26.8946437219
 30
0.0
 11
0.0
 21
26.8946437219
 31
0.0
  0
LINE
  5
3DE
330
3CE
100
AcDbEntity
  8
0
  6
CONTINUOUS
 62
     7
100
AcDbLine
 10
1000.0
 20
0.5
 30
0.0
 11
0.0
 21
0.5
 31
0.0
  0
LINE
  5
3DF
330
3CE
100
AcDbEntity
  8
0
  6
CONTINUOUS
 62
     7
100
AcDbLine
 10
1000.0
 20
0.0
 30
0.0
 11
0.0
 21
0.0
 31
0.0
  0
LINE
  5
3E0
330
3CE
100
AcDbEntity
  8
0
  6
CONTINUOUS
 62
     7
100
AcDbLine
 10
1000.0
 20
0.0
 30
0.0
 11
1000.0
 21
27.3946437219
 31
0.0
  0
LINE
  5
3E1
330
3CE
100
AcDbEntity
  8
0
  6
CONTINUOUS
 62
     7
100
AcDbLine
 10
0.0
 20
0.0
 30
0.0
 11
0.0
 21
27.3946437219
 31
0.0
  0
VIEWPORT
  5
97F
330
3CE
100
AcDbEntity
  8
0
100
AcDbViewport
 10
0.0
 20
0.0
 30
0.0
 40
205.6
 41
156.0
 68
     1
 69
     1
1001
ACAD
1000
MVIEW
1002
{
1070
    16
1010
0.0
1020
0.0
1030
0.0
1010
0.0
1020
0.0
1030
1.0
1040
0.0
1040
596.5052109039
1040
353.5524304769
1040
-192.8681346605
1040
50.0
1040
0.0
1040
0.0
1070
     0
1070
   100
1070
     0
1070
     3
1070
     0
1070
     0
1070
     0
1070
     0
1040
0.0
1040
0.0
1040
0.0
1040
10.0
1040
10.0
1040
10.0
1040
10.0
1070
     0
1002
{
1002
}
1002
}
  0
ENDBLK
  5
3D1
330
3CE
100
AcDbEntity
  8
0
100
AcDbBlockEnd
  0
BLOCK
  5
3E4
330
3E2
100
AcDbEntity
  8
0
100
AcDbBlockBegin
  2
*PAPER_SPACE3
 70
     0
 10
0.0
 20
0.0
 30
0.0
  3
*PAPER_SPACE3
  1

  0
LINE
  5
3F0
330
3E2
100
AcDbEntity
  8
0
  6
CONTINUOUS
 62
     7
100
AcDbLine
 10
0.0
 20
27.3946437219
 30
0.0
 11
-1000.0
 21
27.3946437219
 31
0.0
  0
LINE
  5
3F1
330
3E2
100
AcDbEntity
  8
0
  6
CONTINUOUS
 62
     7
100
AcDbLine
 10
-1000.0
 20
26.8946437219
 30
0.0
 11
0.0
 21
26.8946437219
 31
0.0
  0
LINE
  5
3F2
330
3E2
100
AcDbEntity
  8
0
  6
CONTINUOUS
 62
     7
100
AcDbLine
 10
-1000.0
 20
0.0
 30
0.0
 11
0.0
 21
0.0
 31
0.0
  0
LINE
  5
3F3
330
3E2
100
AcDbEntity
  8
0
  6
CONTINUOUS
 62
     7
100
AcDbLine
 10
-1000.0
 20
0.5
 30
0.0
 11
0.0
 21
0.5
 31
0.0
  0
LINE
  5
3F4
330
3E2
100
AcDbEntity
  8
0
  6
CONTINUOUS
 62
     7
100
AcDbLine
 10
-1000.0
 20
27.3946437219
 30
0.0
 11
-1000.0
 21
0.0
 31
0.0
  0
LINE
  5
3F5
330
3E2
100
AcDbEntity
  8
0
  6
CONTINUOUS
 62
     7
100
AcDbLine
 10
0.0
 20
27.3946437219
 30
0.0
 11
0.0
 21
0.0
 31
0.0
  0
VIEWPORT
  5
981
330
3E2
100
AcDbEntity
  8
0
100
AcDbViewport
 10
0.0
 20
0.0
 30
0.0
 40
205.6
 41
156.0
 68
     1
 69
     1
1001
ACAD
1000
MVIEW
1002
{
1070
    16
1010
0.0
1020
0.0
1030
0.0
1010
0.0
1020
0.0
1030
1.0
1040
0.0
1040
596.5052109039
1040
353.5524304769
1040
-192.8681346605
1040
50.0
1040
0.0
1040
0.0
1070
     0
1070
   100
1070
     0
1070
     3
1070
     0
1070
     0
1070
     0
1070
     0
1040
0.0
1040
0.0
1040
0.0
1040
10.0
1040
10.0
1040
10.0
1040
10.0
1070
     0
1002
{
1002
}
1002
}
  0
ENDBLK
  5
3E5
330
3E2
100
AcDbEntity
  8
0
100
AcDbBlockEnd
  0
BLOCK
  5
3F8
330
3F6
100
AcDbEntity
  8
0
100
AcDbBlockBegin
  2
*PAPER_SPACE4
 70
     0
 10
0.0
 20
0.0
 30
0.0
  3
*PAPER_SPACE4
  1

  0
LINE
  5
4A6
330
3F6
100
AcDbEntity
  8
0
  6
CONTINUOUS
 62
     7
100
AcDbLine
 10
-44.4021978022
 20
-1000.0
 30
0.0
 11
-44.4021978022
 21
0.0
 31
0.0
  0
LINE
  5
4A7
330
3F6
100
AcDbEntity
  8
0
  6
CONTINUOUS
 62
     7
100
AcDbLine
 10
-45.0
 20
-1000.0
 30
0.0
 11
-45.0
 21
0.0
 31
0.0
  0
LINE
  5
4A8
330
3F6
100
AcDbEntity
  8
0
  6
CONTINUOUS
 62
     7
100
AcDbLine
 10
45.0
 20
-1000.0
 30
0.0
 11
45.0
 21
0.0
 31
0.0
  0
LINE
  5
4A9
330
3F6
100
AcDbEntity
  8
0
  6
CONTINUOUS
 62
     7
100
AcDbLine
 10
44.4021978022
 20
-1000.0
 30
0.0
 11
44.4021978022
 21
0.0
 31
0.0
  0
LINE
  5
4AA
330
3F6
100
AcDbEntity
  8
0
  6
CONTINUOUS
 62
     7
100
AcDbLine
 10
-42.4065934066
 20
-1000.0
 30
0.0
 11
-42.4065934066
 21
0.0
 31
0.0
  0
LINE
  5
4AB
330
3F6
100
AcDbEntity
  8
0
  6
CONTINUOUS
 62
     7
100
AcDbLine
 10
42.4065934066
 20
-1000.0
 30
0.0
 11
42.4065934066
 21
0.0
 31
0.0
  0
LINE
  5
4AC
330
3F6
100
AcDbEntity
  8
0
  6
CONTINUOUS
 62
     7
100
AcDbLine
 10
42.0
 20
-1000.0
 30
0.0
 11
42.0
 21
0.0
 31
0.0
  0
LINE
  5
4AD
330
3F6
100
AcDbEntity
  8
0
  6
CONTINUOUS
 62
     7
100
AcDbLine
 10
-42.0
 20
-1000.0
 30
0.0
 11
-42.0
 21
0.0
 31
0.0
  0
LINE
  5
4AE
330
3F6
100
AcDbEntity
  8
0
  6
CONTINUOUS
 62
     7
100
AcDbLine
 10
-36.9186813187
 20
-1000.0
 30
0.0
 11
-36.9186813187
 21
0.0
 31
0.0
  0
LINE
  5
4AF
330
3F6
100
AcDbEntity
  8
0
  6
CONTINUOUS
 62
     7
100
AcDbLine
 10
-37.5
 20
-1000.0
 30
0.0
 11
-37.5
 21
0.0
 31
0.0
  0
LINE
  5
4B0
330
3F6
100
AcDbEntity
  8
0
  6
CONTINUOUS
 62
     7
100
AcDbLine
 10
37.5
 20
-1000.0
 30
0.0
 11
37.5
 21
0.0
 31
0.0
  0
LINE
  5
4B1
330
3F6
100
AcDbEntity
  8
0
  6
CONTINUOUS
 62
     7
100
AcDbLine
 10
36.9186813187
 20
-1000.0
 30
0.0
 11
36.9186813187
 21
0.0
 31
0.0
  0
LINE
  5
4B2
330
3F6
100
AcDbEntity
  8
0
  6
CONTINUOUS
 62
     7
100
AcDbLine
 10
-34.9230769231
 20
-1000.0
 30
0.0
 11
-34.9230769231
 21
0.0
 31
0.0
  0
LINE
  5
4B3
330
3F6
100
AcDbEntity
  8
0
  6
CONTINUOUS
 62
     7
100
AcDbLine
 10
34.9230769231
 20
-1000.0
 30
0.0
 11
34.9230769231
 21
0.0
 31
0.0
  0
LINE
  5
4B4
330
3F6
100
AcDbEntity
  8
0
  6
CONTINUOUS
 62
     7
100
AcDbLine
 10
34.5
 20
-1000.0
 30
0.0
 11
34.5
 21
0.0
 31
0.0
  0
LINE
  5
4B5
330
3F6
100
AcDbEntity
  8
0
  6
CONTINUOUS
 62
     7
100
AcDbLine
 10
-34.5
 20
-1000.0
 30
0.0
 11
-34.5
 21
0.0
 31
0.0
  0
LINE
  5
4B6
330
3F6
100
AcDbEntity
  8
0
  6
CONTINUOUS
 62
     7
100
AcDbLine
 10
-29.4351648352
 20
-1000.0
 30
0.0
 11
-29.4351648352
 21
0.0
 31
0.0
  0
LINE
  5
4B7
330
3F6
100
AcDbEntity
  8
0
  6
CONTINUOUS
 62
     7
100
AcDbLine
 10
-30.0
 20
-1000.0
 30
0.0
 11
-30.0
 21
0.0
 31
0.0
  0
LINE
  5
4B8
330
3F6
100
AcDbEntity
  8
0
  6
CONTINUOUS
 62
     7
100
AcDbLine
 10
30.0
 20
-1000.0
 30
0.0
 11
30.0
 21
0.0
 31
0.0
  0
LINE
  5
4B9
330
3F6
100
AcDbEntity
  8
0
  6
CONTINUOUS
 62
     7
100
AcDbLine
 10
29.4351648352
 20
-1000.0
 30
0.0
 11
29.4351648352
 21
0.0
 31
0.0
  0
LINE
  5
4BA
330
3F6
100
AcDbEntity
  8
0
  6
CONTINUOUS
 62
     7
100
AcDbLine
 10
-27.4395604396
 20
-1000.0
 30
0.0
 11
-27.4395604396
 21
0.0
 31
0.0
  0
LINE
  5
4BB
330
3F6
100
AcDbEntity
  8
0
  6
CONTINUOUS
 62
     7
100
AcDbLine
 10
27.4395604396
 20
-1000.0
 30
0.0
 11
27.4395604396
 21
0.0
 31
0.0
  0
LINE
  5
4BC
330
3F6
100
AcDbEntity
  8
0
  6
CONTINUOUS
 62
     7
100
AcDbLine
 10
27.0
 20
-1000.0
 30
0.0
 11
27.0
 21
0.0
 31
0.0
  0
LINE
  5
4BD
330
3F6
100
AcDbEntity
  8
0
  6
CONTINUOUS
 62
     7
100
AcDbLine
 10
-27.0
 20
-1000.0
 30
0.0
 11
-27.0
 21
0.0
 31
0.0
  0
LINE
  5
4BE
330
3F6
100
AcDbEntity
  8
0
  6
CONTINUOUS
 62
     7
100
AcDbLine
 10
-21.9516483516
 20
-1000.0
 30
0.0
 11
-21.9516483516
 21
0.0
 31
0.0
  0
LINE
  5
4BF
330
3F6
100
AcDbEntity
  8
0
  6
CONTINUOUS
 62
     7
100
AcDbLine
 10
-22.5
 20
-1000.0
 30
0.0
 11
-22.5
 21
0.0
 31
0.0
  0
LINE
  5
4C0
330
3F6
100
AcDbEntity
  8
0
  6
CONTINUOUS
 62
     7
100
AcDbLine
 10
22.5
 20
-1000.0
 30
0.0
 11
22.5
 21
0.0
 31
0.0
  0
LINE
  5
4C1
330
3F6
100
AcDbEntity
  8
0
  6
CONTINUOUS
 62
     7
100
AcDbLine
 10
21.9516483516
 20
-1000.0
 30
0.0
 11
21.9516483516
 21
0.0
 31
0.0
  0
LINE
  5
4C2
330
3F6
100
AcDbEntity
  8
0
  6
CONTINUOUS
 62
     7
100
AcDbLine
 10
-19.956043956
 20
-1000.0
 30
0.0
 11
-19.956043956
 21
0.0
 31
0.0
  0
LINE
  5
4C3
330
3F6
100
AcDbEntity
  8
0
  6
CONTINUOUS
 62
     7
100
AcDbLine
 10
19.956043956
 20
-1000.0
 30
0.0
 11
19.956043956
 21
0.0
 31
0.0
  0
LINE
  5
4C4
330
3F6
100
AcDbEntity
  8
0
  6
CONTINUOUS
 62
     7
100
AcDbLine
 10
19.5
 20
-1000.0
 30
0.0
 11
19.5
 21
0.0
 31
0.0
  0
LINE
  5
4C5
330
3F6
100
AcDbEntity
  8
0
  6
CONTINUOUS
 62
     7
100
AcDbLine
 10
-19.5
 20
-1000.0
 30
0.0
 11
-19.5
 21
0.0
 31
0.0
  0
LINE
  5
4C6
330
3F6
100
AcDbEntity
  8
0
  6
CONTINUOUS
 62
     7
100
AcDbLine
 10
-14.4681318681
 20
-1000.0
 30
0.0
 11
-14.4681318681
 21
0.0
 31
0.0
  0
LINE
  5
4C7
330
3F6
100
AcDbEntity
  8
0
  6
CONTINUOUS
 62
     7
100
AcDbLine
 10
-15.0
 20
-1000.0
 30
0.0
 11
-15.0
 21
0.0
 31
0.0
  0
LINE
  5
4C8
330
3F6
100
AcDbEntity
  8
0
  6
CONTINUOUS
 62
     7
100
AcDbLine
 10
15.0
 20
-1000.0
 30
0.0
 11
15.0
 21
0.0
 31
0.0
  0
LINE
  5
4C9
330
3F6
100
AcDbEntity
  8
0
  6
CONTINUOUS
 62
     7
100
AcDbLine
 10
14.4681318681
 20
-1000.0
 30
0.0
 11
14.4681318681
 21
0.0
 31
0.0
  0
LINE
  5
4CA
330
3F6
100
AcDbEntity
  8
0
  6
CONTINUOUS
 62
     7
100
AcDbLine
 10
-45.0
 20
-1000.0
 30
0.0
 11
45.0
 21
-1000.0
 31
0.0
  0
LINE
  5
4CB
330
3F6
100
AcDbEntity
  8
0
  6
CONTINUOUS
 62
     7
100
AcDbLine
 10
-45.0
 20
0.0
 30
0.0
 11
45.0
 21
0.0
 31
0.0
  0
LINE
  5
4CC
330
3F6
100
AcDbEntity
  8
0
  6
CONTINUOUS
 62
     7
100
AcDbLine
 10
-12.4725274725
 20
-1000.0
 30
0.0
 11
-12.4725274725
 21
0.0
 31
0.0
  0
LINE
  5
4CD
330
3F6
100
AcDbEntity
  8
0
  6
CONTINUOUS
 62
     7
100
AcDbLine
 10
12.4725274725
 20
-1000.0
 30
0.0
 11
12.4725274725
 21
0.0
 31
0.0
  0
LINE
  5
4CE
330
3F6
100
AcDbEntity
  8
0
  6
CONTINUOUS
 62
     7
100
AcDbLine
 10
12.0
 20
-1000.0
 30
0.0
 11
12.0
 21
0.0
 31
0.0
  0
LINE
  5
4CF
330
3F6
100
AcDbEntity
  8
0
  6
CONTINUOUS
 62
     7
100
AcDbLine
 10
-12.0
 20
-1000.0
 30
0.0
 11
-12.0
 21
0.0
 31
0.0
  0
LINE
  5
4D0
330
3F6
100
AcDbEntity
  8
0
  6
CONTINUOUS
 62
     7
100
AcDbLine
 10
-11.5
 20
-1000.0
 30
0.0
 11
-11.5
 21
0.0
 31
0.0
  0
LINE
  5
4D1
330
3F6
100
AcDbEntity
  8
0
  6
CONTINUOUS
 62
     7
100
AcDbLine
 10
19.0
 20
-1000.0
 30
0.0
 11
19.0
 21
0.0
 31
0.0
  0
LINE
  5
4D2
330
3F6
100
AcDbEntity
  8
0
  6
CONTINUOUS
 62
     7
100
AcDbLine
 10
-41.5
 20
-1000.0
 30
0.0
 11
-41.5
 21
0.0
 31
0.0
  0
LINE
  5
4D3
330
3F6
100
AcDbEntity
  8
0
  6
CONTINUOUS
 62
     7
100
AcDbLine
 10
26.5
 20
-1000.0
 30
0.0
 11
26.5
 21
0.0
 31
0.0
  0
LINE
  5
4D4
330
3F6
100
AcDbEntity
  8
0
  6
CONTINUOUS
 62
     7
100
AcDbLine
 10
-34.0
 20
-1000.0
 30
0.0
 11
-34.0
 21
0.0
 31
0.0
  0
LINE
  5
4D5
330
3F6
100
AcDbEntity
  8
0
  6
CONTINUOUS
 62
     7
100
AcDbLine
 10
34.0
 20
-1000.0
 30
0.0
 11
34.0
 21
0.0
 31
0.0
  0
LINE
  5
4D6
330
3F6
100
AcDbEntity
  8
0
  6
CONTINUOUS
 62
     7
100
AcDbLine
 10
-26.5
 20
-1000.0
 30
0.0
 11
-26.5
 21
0.0
 31
0.0
  0
LINE
  5
4D7
330
3F6
100
AcDbEntity
  8
0
  6
CONTINUOUS
 62
     7
100
AcDbLine
 10
41.5
 20
-1000.0
 30
0.0
 11
41.5
 21
0.0
 31
0.0
  0
LINE
  5
4D8
330
3F6
100
AcDbEntity
  8
0
  6
CONTINUOUS
 62
     7
100
AcDbLine
 10
-19.0
 20
-1000.0
 30
0.0
 11
-19.0
 21
0.0
 31
0.0
  0
LINE
  5
4D9
330
3F6
100
AcDbEntity
  8
0
  6
CONTINUOUS
 62
     7
100
AcDbLine
 10
11.5
 20
-1000.0
 30
0.0
 11
11.5
 21
0.0
 31
0.0
  0
LINE
  5
4DA
330
3F6
100
AcDbEntity
  8
0
  6
CONTINUOUS
 62
     7
100
AcDbLine
 10
38.0
 20
-1000.0
 30
0.0
 11
38.0
 21
0.0
 31
0.0
  0
LINE
  5
4DB
330
3F6
100
AcDbEntity
  8
0
  6
CONTINUOUS
 62
     7
100
AcDbLine
 10
-38.0
 20
-1000.0
 30
0.0
 11
-38.0
 21
0.0
 31
0.0
  0
LINE
  5
4DC
330
3F6
100
AcDbEntity
  8
0
  6
CONTINUOUS
 62
     7
100
AcDbLine
 10
-15.5
 20
-1000.0
 30
0.0
 11
-15.5
 21
0.0
 31
0.0
  0
LINE
  5
4DD
330
3F6
100
AcDbEntity
  8
0
  6
CONTINUOUS
 62
     7
100
AcDbLine
 10
-30.5
 20
-1000.0
 30
0.0
 11
-30.5
 21
0.0
 31
0.0
  0
LINE
  5
4DE
330
3F6
100
AcDbEntity
  8
0
  6
CONTINUOUS
 62
     7
100
AcDbLine
 10
15.5
 20
-1000.0
 30
0.0
 11
15.5
 21
0.0
 31
0.0
  0
LINE
  5
4DF
330
3F6
100
AcDbEntity
  8
0
  6
CONTINUOUS
 62
     7
100
AcDbLine
 10
-23.0
 20
-1000.0
 30
0.0
 11
-23.0
 21
0.0
 31
0.0
  0
LINE
  5
4E0
330
3F6
100
AcDbEntity
  8
0
  6
CONTINUOUS
 62
     7
100
AcDbLine
 10
23.0
 20
-1000.0
 30
0.0
 11
23.0
 21
0.0
 31
0.0
  0
LINE
  5
4E1
330
3F6
100
AcDbEntity
  8
0
  6
CONTINUOUS
 62
     7
100
AcDbLine
 10
30.5
 20
-1000.0
 30
0.0
 11
30.5
 21
0.0
 31
0.0
  0
VIEWPORT
  5
983
330
3F6
100
AcDbEntity
  8
0
100
AcDbViewport
 10
0.0
 20
0.0
 30
0.0
 40
205.6
 41
156.0
 68
     1
 69
     1
1001
ACAD
1000
MVIEW
1002
{
1070
    16
1010
0.0
1020
0.0
1030
0.0
1010
0.0
1020
0.0
1030
1.0
1040
0.0
1040
596.5052109039
1040
353.5524304769
1040
-192.8681346605
1040
50.0
1040
0.0
1040
0.0
1070
     0
1070
   100
1070
     0
1070
     3
1070
     0
1070
     0
1070
     0
1070
     0
1040
0.0
1040
0.0
1040
0.0
1040
10.0
1040
10.0
1040
10.0
1040
10.0
1070
     0
1002
{
1002
}
1002
}
  0
ENDBLK
  5
3F9
330
3F6
100
AcDbEntity
  8
0
100
AcDbBlockEnd
  0
BLOCK
  5
4E4
330
4E2
100
AcDbEntity
  8
0
100
AcDbBlockBegin
  2
*PAPER_SPACE5
 70
     0
 10
0.0
 20
0.0
 30
0.0
  3
*PAPER_SPACE5
  1

  0
LINE
  5
4F0
330
4E2
100
AcDbEntity
  8
0
  6
CONTINUOUS
 62
     7
100
AcDbLine
 10
-45.0
 20
1000.0
 30
0.0
 11
-45.0
 21
0.0
 31
0.0
  0
LINE
  5
4F1
330
4E2
100
AcDbEntity
  8
0
  6
CONTINUOUS
 62
     7
100
AcDbLine
 10
45.0
 20
1000.0
 30
0.0
 11
-45.0
 21
1000.0
 31
0.0
  0
LINE
  5
4F2
330
4E2
100
AcDbEntity
  8
0
  6
CONTINUOUS
 62
     7
100
AcDbLine
 10
-44.5
 20
1000.0
 30
0.0
 11
-44.5
 21
0.0
 31
0.0
  0
LINE
  5
4F3
330
4E2
100
AcDbEntity
  8
0
  6
CONTINUOUS
 62
     7
100
AcDbLine
 10
45.0
 20
0.0
 30
0.0
 11
-45.0
 21
0.0
 31
0.0
  0
LINE
  5
4F4
330
4E2
100
AcDbEntity
  8
0
  6
CONTINUOUS
 62
     7
100
AcDbLine
 10
44.5
 20
1000.0
 30
0.0
 11
44.5
 21
0.0
 31
0.0
  0
LINE
  5
4F5
330
4E2
100
AcDbEntity
  8
0
  6
CONTINUOUS
 62
     7
100
AcDbLine
 10
45.0
 20
1000.0
 30
0.0
 11
45.0
 21
0.0
 31
0.0
  0
VIEWPORT
  5
985
330
4E2
100
AcDbEntity
  8
0
100
AcDbViewport
 10
0.0
 20
0.0
 30
0.0
 40
205.6
 41
156.0
 68
     1
 69
     1
1001
ACAD
1000
MVIEW
1002
{
1070
    16
1010
0.0
1020
0.0
1030
0.0
1010
0.0
1020
0.0
1030
1.0
1040
0.0
1040
596.5052109039
1040
353.5524304769
1040
-192.8681346605
1040
50.0
1040
0.0
1040
0.0
1070
     0
1070
   100
1070
     0
1070
     3
1070
     0
1070
     0
1070
     0
1070
     0
1040
0.0
1040
0.0
1040
0.0
1040
10.0
1040
10.0
1040
10.0
1040
10.0
1070
     0
1002
{
1002
}
1002
}
  0
ENDBLK
  5
4E5
330
4E2
100
AcDbEntity
  8
0
100
AcDbBlockEnd
  0
BLOCK
  5
4F8
330
4F6
100
AcDbEntity
  8
0
100
AcDbBlockBegin
  2
*PAPER_SPACE6
 70
     0
 10
0.0
 20
0.0
 30
0.0
  3
*PAPER_SPACE6
  1

  0
LWPOLYLINE
  5
505
330
4F6
100
AcDbEntity
  8
0
  6
CONTINUOUS
 62
     7
100
AcDbPolyline
 90
        9
 70
   128
 43
0.0
 10
-738.5038763521
 20
-367.7179406576
 10
-738.5815474743
 20
-367.6653338776
 10
-738.6588045824
 20
-367.6328122715
 10
-738.7318910916
 20
-367.6219571847
 10
-738.79725321
 20
-367.6332964399
 10
-738.8517127402
 20
-367.666278672
 10
-738.8926216173
 20
-367.7193001379
 10
-738.9179906693
 20
-367.7897826978
 10
-738.9265863399
 20
-367.8742991753
  0
LWPOLYLINE
  5
50D
330
4F6
100
AcDbEntity
  8
0
  6
CONTINUOUS
 62
     7
100
AcDbPolyline
 90
        9
 70
   128
 43
0.0
 10
-733.2122310995
 20
-371.8854320793
 10
-733.288605306
 20
-371.8364885559
 10
-733.3640961426
 20
-371.8071370399
 10
-733.4351702238
 20
-371.7987513435
 10
-733.4985008926
 20
-371.8117239631
 10
-733.5511239263
 20
-371.845447709
 10
-733.5905762782
 20
-371.8983441249
 10
-733.6150113618
 20
-371.9679373683
 10
-733.623285481
 20
-372.0509700935
  0
LWPOLYLINE
  5
515
330
4F6
100
AcDbEntity
  8
0
  6
CONTINUOUS
 62
     7
100
AcDbPolyline
 90
        9
 70
   128
 43
0.0
 10
-727.9205858468
 20
-375.8431433267
 10
-727.9955901315
 20
-375.7977881969
 10
-728.0692813761
 20
-375.7715130587
 10
-728.138341227
 20
-375.7655010949
 10
-728.1996598842
 20
-375.7800230273
 10
-728.2504761376
 20
-375.8144249259
 10
-728.2885017059
 20
-375.8671576559
 10
-728.3120242785
 20
-375.9358466359
 10
-728.3199846221
 20
-376.0173987666
  0
LWPOLYLINE
  5
51D
330
4F6
100
AcDbEntity
  8
0
  6
CONTINUOUS
 62
     7
100
AcDbPolyline
 90
        9
 70
   128
 43
0.0
 10
-722.6289405942
 20
-379.5941545367
 10
-722.7025056832
 20
-379.5523127095
 10
-722.774365942
 20
-379.5290219481
 10
-722.8414100418
 20
-379.525290671
 10
-722.9007351789
 20
-379.541280431
 10
-722.9497727567
 20
-379.5762989207
 10
-722.9863995986
 20
-379.6288299467
 10
-723.0090298746
 20
-379.6965990769
 10
-723.0166837632
 20
-379.7766721158
  0
LWPOLYLINE
  5
525
330
4F6
100
AcDbEntity
  8
0
  6
CONTINUOUS
 62
     7
100
AcDbPolyline
 90
        9
 70
   128
 43
0.0
 10
-717.3372953416
 20
-383.140799622
 10
-717.4093553677
 20
-383.1023956344
 10
-717.4793549977
 20
-383.0819986612
 10
-717.5443820765
 20
-383.0804572661
 10
-717.6017313193
 20
-383.097835575
 10
-717.649016858
 20
-383.1334106079
 10
-717.684271499
 20
-383.1857023568
 10
-717.7060285634
 20
-383.2525353576
 10
-717.7133829043
 20
-383.3311291947
  0
LWPOLYLINE
  5
535
330
4F6
100
AcDbEntity
  8
0
  6
CONTINUOUS
 62
     7
100
AcDbPolyline
 90
        9
 70
   128
 43
0.0
 10
-692.9957271796
 20
-396.8521056258
 10
-693.0600978349
 20
-396.8285252296
 10
-693.1211987701
 20
-396.8202983858
 10
-693.1769369708
 20
-396.8277069051
 10
-693.2254031236
 20
-396.8504970086
 10
-693.2649370189
 20
-396.8878880207
 10
-693.2941844222
 20
-396.9385991111
 10
-693.3121434629
 20
-397.0008931701
 10
-693.3181989534
 20
-397.072636313
  0
LWPOLYLINE
  5
53D
330
4F6
100
AcDbEntity
  8
0
  6
CONTINUOUS
 62
     7
100
AcDbPolyline
 90
        9
 70
   128
 43
0.0
 10
-687.704081927
 20
-399.2653940516
 10
-687.7666297979
 20
-399.2448149933
 10
-687.8257301461
 20
-399.2389882933
 10
-687.8794477518
 20
-399.2481047448
 10
-687.9260236511
 20
-399.2718658328
 10
-687.9639327328
 20
-399.309493509
 10
-687.9919336777
 20
-399.3597556686
 10
-688.0091096048
 20
-399.4210064951
 10
-688.0148980945
 20
-399.4912403521
  0
LWPOLYLINE
  5
545
330
4F6
100
AcDbEntity
  8
0
  6
CONTINUOUS
 62
     7
100
AcDbPolyline
 90
        9
 70
   128
 43
0.0
 10
-682.4124366743
 20
-401.4726758904
 10
-682.4731125069
 20
-401.4550163616
 10
-682.5301910494
 20
-401.4515019942
 10
-682.5818879057
 20
-401.4622426546
 10
-682.6265869228
 20
-401.486902567
 10
-682.6628907146
 20
-401.5247108104
 10
-682.6896643478
 20
-401.574485419
 10
-682.7060708218
 20
-401.6346703332
 10
-682.7115972356
 20
-401.7033840451
  0
LWPOLYLINE
  5
54D
330
4F6
100
AcDbEntity
  8
0
  6
CONTINUOUS
 62
     7
100
AcDbPolyline
 90
        9
 70
   128
 43
0.0
 10
-677.1207914217
 20
-403.4710746794
 10
-677.1795478347
 20
-403.4562512213
 10
-677.234584288
 20
-403.4549608383
 10
-677.2842603535
 20
-403.4672419917
 10
-677.3270953758
 20
-403.4927286269
 10
-677.3618126053
 20
-403.530661084
 10
-677.3873772529
 20
-403.57990874
 10
-677.4030273332
 20
-403.6390037089
 10
-677.4082963767
 20
-403.7061845936
  0
LINE
  5
5BA
330
4F6
100
AcDbEntity
  8
0
  6
CONTINUOUS
 62
     7
100
AcDbLine
 10
29.8020585173
 20
4.726793721
 30
0.0
 11
-677.3047226693
 21
-403.4772621904
 31
0.0
  0
LINE
  5
5BB
330
4F6
100
AcDbEntity
  8
0
  6
CONTINUOUS
 62
     7
100
AcDbLine
 10
24.4987576584
 20
6.7295942695
 30
0.0
 11
-682.6080235282
 21
-401.4744616419
 31
0.0
  0
LINE
  5
5BC
330
4F6
100
AcDbEntity
  8
0
  6
CONTINUOUS
 62
     7
100
AcDbLine
 10
19.1954567995
 20
8.9417379625
 30
0.0
 11
-687.9113243871
 21
-399.2623179488
 31
0.0
  0
LINE
  5
5BD
330
4F6
100
AcDbEntity
  8
0
  6
CONTINUOUS
 62
     7
100
AcDbLine
 10
-675.3905497406
 20
-426.3938904247
 30
0.0
 11
31.716231446
 21
-18.1898345133
 31
0.0
  0
LINE
  5
5BE
330
4F6
100
AcDbEntity
  8
0
  6
CONTINUOUS
 62
     7
100
AcDbLine
 10
13.8921559406
 20
11.3603420016
 30
0.0
 11
-693.214625246
 21
-396.8437139098
 31
0.0
  0
LINE
  5
5BF
330
4F6
100
AcDbEntity
  8
0
  6
CONTINUOUS
 62
     7
100
AcDbLine
 10
8.5888550817
 20
13.9832594516
 30
0.0
 11
-698.5179261049
 21
-394.2207964598
 31
0.0
  0
LINE
  5
5C0
330
4F6
100
AcDbEntity
  8
0
  6
CONTINUOUS
 62
     7
100
AcDbLine
 10
-10.5030280104
 20
25.1018491199
 30
0.0
 11
-717.6098091969
 21
-383.1022067915
 31
0.0
  0
LINE
  5
5C1
330
4F6
100
AcDbEntity
  8
0
  6
CONTINUOUS
 62
     7
100
AcDbLine
 10
-15.8063288693
 20
28.6563061988
 30
0.0
 11
-722.9131100558
 21
-379.5477497126
 31
0.0
  0
LINE
  5
5C2
330
4F6
100
AcDbEntity
  8
0
  6
CONTINUOUS
 62
     7
100
AcDbLine
 10
-21.1096297282
 20
32.415579548
 30
0.0
 11
-728.2164109147
 21
-375.7884763634
 31
0.0
  0
LINE
  5
5C3
330
4F6
100
AcDbEntity
  8
0
  6
CONTINUOUS
 62
     7
100
AcDbLine
 10
-26.4129305871
 20
36.3820082211
 30
0.0
 11
-733.5197117736
 21
-371.8220476902
 31
0.0
  0
LINE
  5
5C4
330
4F6
100
AcDbEntity
  8
0
  6
CONTINUOUS
 62
     7
100
AcDbLine
 10
-31.716231446
 20
40.5586791393
 30
0.0
 11
-738.8230126325
 21
-367.6453767721
 31
0.0
  0
LINE
  5
5C5
330
4F6
100
AcDbEntity
  8
0
  6
CONTINUOUS
 62
     7
100
AcDbLine
 10
-738.5038763521
 20
-367.7179406576
 30
0.0
 11
-737.0927709514
 21
-368.8499878275
 31
0.0
  0
LINE
  5
5C6
330
4F6
100
AcDbEntity
  8
0
  6
CONTINUOUS
 62
     7
100
AcDbLine
 10
-736.8052659964
 20
-369.4170438971
 30
0.0
 11
-736.8052659964
 21
-385.7519702858
 31
0.0
  0
LINE
  5
5C7
330
4F6
100
AcDbEntity
  8
0
  6
CONTINUOUS
 62
     7
100
AcDbLine
 10
-736.4517126058
 20
-386.3643427197
 30
0.0
 11
-733.9768388716
 21
-387.7930569154
 31
0.0
  0
LINE
  5
5C8
330
4F6
100
AcDbEntity
  8
0
  6
CONTINUOUS
 62
     7
100
AcDbLine
 10
-733.623285481
 20
-387.5888885374
 30
0.0
 11
-733.623285481
 21
-372.0509700935
 31
0.0
  0
LINE
  5
5C9
330
4F6
100
AcDbEntity
  8
0
  6
CONTINUOUS
 62
     7
100
AcDbLine
 10
-733.2122310995
 20
-371.8854320793
 30
0.0
 11
-731.8011256988
 21
-372.9611926006
 31
0.0
  0
LINE
  5
5CA
330
4F6
100
AcDbEntity
  8
0
  6
CONTINUOUS
 62
     7
100
AcDbLine
 10
-731.5019651375
 20
-373.5373041873
 30
0.0
 11
-731.5019651375
 21
-388.8135007052
 31
0.0
  0
LINE
  5
5CB
330
4F6
100
AcDbEntity
  8
0
  6
CONTINUOUS
 62
     7
100
AcDbLine
 10
-731.1484117469
 20
-389.4258731391
 30
0.0
 11
-728.6735380127
 21
-390.8545873347
 31
0.0
  0
LINE
  5
5CC
330
4F6
100
AcDbEntity
  8
0
  6
CONTINUOUS
 62
     7
100
AcDbLine
 10
-728.3199846221
 20
-390.6504189568
 30
0.0
 11
-728.3199846221
 21
-376.0173987666
 31
0.0
  0
LINE
  5
5CD
330
4F6
100
AcDbEntity
  8
0
  6
CONTINUOUS
 62
     7
100
AcDbLine
 10
-727.9205858468
 20
-375.8431433267
 30
0.0
 11
-726.5094804461
 21
-376.8635143239
 31
0.0
  0
LINE
  5
5CE
330
4F6
100
AcDbEntity
  8
0
  6
CONTINUOUS
 62
     7
100
AcDbLine
 10
-726.1986642786
 20
-377.4482213328
 30
0.0
 11
-726.1986642786
 21
-391.8750311245
 31
0.0
  0
LINE
  5
5CF
330
4F6
100
AcDbEntity
  8
0
  6
CONTINUOUS
 62
     7
100
AcDbLine
 10
-725.845110888
 20
-392.4874035584
 30
0.0
 11
-723.3702371538
 21
-393.9161177541
 31
0.0
  0
LINE
  5
5D0
330
4F6
100
AcDbEntity
  8
0
  6
CONTINUOUS
 62
     7
100
AcDbLine
 10
-723.0166837632
 20
-393.7119493761
 30
0.0
 11
-723.0166837632
 21
-379.7766721158
 31
0.0
  0
LINE
  5
5D1
330
4F6
100
AcDbEntity
  8
0
  6
CONTINUOUS
 62
     7
100
AcDbLine
 10
-722.6289405942
 20
-379.5941545367
 30
0.0
 11
-721.2178351935
 21
-380.5598294602
 31
0.0
  0
LINE
  5
5D2
330
4F6
100
AcDbEntity
  8
0
  6
CONTINUOUS
 62
     7
100
AcDbLine
 10
-720.8953634197
 20
-381.1526781324
 30
0.0
 11
-720.8953634197
 21
-394.9365615438
 31
0.0
  0
LINE
  5
5D3
330
4F6
100
AcDbEntity
  8
0
  6
CONTINUOUS
 62
     7
100
AcDbLine
 10
-720.5418100291
 20
-395.5489339777
 30
0.0
 11
-718.0669362949
 21
-396.9776481734
 31
0.0
  0
LINE
  5
5D4
330
4F6
100
AcDbEntity
  8
0
  6
CONTINUOUS
 62
     7
100
AcDbLine
 10
-717.7133829043
 20
-396.7734797954
 30
0.0
 11
-717.7133829043
 21
-383.3311291947
 31
0.0
  0
LINE
  5
5D5
330
4F6
100
AcDbEntity
  8
0
  6
CONTINUOUS
 62
     7
100
AcDbLine
 10
-717.3372953416
 20
-383.140799622
 30
0.0
 11
-715.9261899409
 21
-384.0522802261
 31
0.0
  0
LINE
  5
5D6
330
4F6
100
AcDbEntity
  8
0
  6
CONTINUOUS
 62
     7
100
AcDbLine
 10
-715.5920625608
 20
-384.6528215212
 30
0.0
 11
-715.5920625608
 21
-397.9980919632
 31
0.0
  0
LINE
  5
5D7
330
4F6
100
AcDbEntity
  8
0
  6
CONTINUOUS
 62
     7
100
AcDbLine
 10
-715.2385091702
 20
-398.6104643971
 30
0.0
 11
-698.9750532029
 21
-407.999157683
 31
0.0
  0
LINE
  5
5D8
330
4F6
100
AcDbEntity
  8
0
  6
CONTINUOUS
 62
     7
100
AcDbLine
 10
-698.6214998123
 20
-407.794989305
 30
0.0
 11
-698.6214998123
 21
-394.449718863
 31
0.0
  0
LINE
  5
5D9
330
4F6
100
AcDbEntity
  8
0
  6
CONTINUOUS
 62
     7
100
AcDbLine
 10
-698.2873724322
 20
-394.2349528296
 30
0.0
 11
-696.8762670315
 21
-394.9526998421
 31
0.0
  0
LINE
  5
5DA
330
4F6
100
AcDbEntity
  8
0
  6
CONTINUOUS
 62
     7
100
AcDbLine
 10
-696.5001794688
 20
-395.577250872
 30
0.0
 11
-696.5001794688
 21
-409.0196014728
 31
0.0
  0
LINE
  5
5DB
330
4F6
100
AcDbEntity
  8
0
  6
CONTINUOUS
 62
     7
100
AcDbLine
 10
-696.1466260782
 20
-409.6319739067
 30
0.0
 11
-693.671752344
 21
-411.0606881024
 31
0.0
  0
LINE
  5
5DC
330
4F6
100
AcDbEntity
  8
0
  6
CONTINUOUS
 62
     7
100
AcDbLine
 10
-693.3181989534
 20
-410.8565197244
 30
0.0
 11
-693.3181989534
 21
-397.072636313
 31
0.0
  0
LINE
  5
5DD
330
4F6
100
AcDbEntity
  8
0
  6
CONTINUOUS
 62
     7
100
AcDbLine
 10
-692.9957271796
 20
-396.8521056258
 30
0.0
 11
-691.5846217789
 21
-397.5156583189
 31
0.0
  0
LINE
  5
5DE
330
4F6
100
AcDbEntity
  8
0
  6
CONTINUOUS
 62
     7
100
AcDbLine
 10
-691.1968786099
 20
-398.1458546318
 30
0.0
 11
-691.1968786099
 21
-412.0811318921
 31
0.0
  0
LINE
  5
5DF
330
4F6
100
AcDbEntity
  8
0
  6
CONTINUOUS
 62
     7
100
AcDbLine
 10
-690.8433252193
 20
-412.693504326
 30
0.0
 11
-688.3684514851
 21
-414.1222185217
 31
0.0
  0
LINE
  5
5E0
330
4F6
100
AcDbEntity
  8
0
  6
CONTINUOUS
 62
     7
100
AcDbLine
 10
-688.0148980945
 20
-413.9180501437
 30
0.0
 11
-688.0148980945
 21
-399.4912403521
 31
0.0
  0
LINE
  5
5E1
330
4F6
100
AcDbEntity
  8
0
  6
CONTINUOUS
 62
     7
100
AcDbLine
 10
-687.704081927
 20
-399.2653940516
 30
0.0
 11
-686.2929765263
 21
-399.874250671
 31
0.0
  0
LINE
  5
5E2
330
4F6
100
AcDbEntity
  8
0
  6
CONTINUOUS
 62
     7
100
AcDbLine
 10
-685.893577751
 20
-400.5096421213
 30
0.0
 11
-685.893577751
 21
-415.1426623114
 31
0.0
  0
LINE
  5
5E3
330
4F6
100
AcDbEntity
  8
0
  6
CONTINUOUS
 62
     7
100
AcDbLine
 10
-685.5400243604
 20
-415.7550347453
 30
0.0
 11
-683.0651506262
 21
-417.183748941
 31
0.0
  0
LINE
  5
5E4
330
4F6
100
AcDbEntity
  8
0
  6
CONTINUOUS
 62
     7
100
AcDbLine
 10
-682.7115972356
 20
-416.979580563
 30
0.0
 11
-682.7115972356
 21
-401.7033840451
 31
0.0
  0
LINE
  5
5E5
330
4F6
100
AcDbEntity
  8
0
  6
CONTINUOUS
 62
     7
100
AcDbLine
 10
-682.4124366743
 20
-401.4726758904
 30
0.0
 11
-681.0013312736
 21
-402.0261429856
 31
0.0
  0
LINE
  5
5E6
330
4F6
100
AcDbEntity
  8
0
  6
CONTINUOUS
 62
     7
100
AcDbLine
 10
-680.5902768921
 20
-402.6662742868
 30
0.0
 11
-680.5902768921
 21
-418.2041927308
 31
0.0
  0
LINE
  5
5E7
330
4F6
100
AcDbEntity
  8
0
  6
CONTINUOUS
 62
     7
100
AcDbLine
 10
-680.2367235015
 20
-418.8165651647
 30
0.0
 11
-677.7618497673
 21
-420.2452793604
 31
0.0
  0
LINE
  5
5E8
330
4F6
100
AcDbEntity
  8
0
  6
CONTINUOUS
 62
     7
100
AcDbLine
 10
-677.4082963767
 20
-420.0411109824
 30
0.0
 11
-677.4082963767
 21
-403.7061845936
 31
0.0
  0
LINE
  5
5E9
330
4F6
100
AcDbEntity
  8
0
  6
CONTINUOUS
 62
     7
100
AcDbLine
 10
-677.1207914217
 20
-403.4710746794
 30
0.0
 11
-675.709686021
 21
-403.9682551261
 31
0.0
  0
LINE
  5
5EA
330
4F6
100
AcDbEntity
  8
0
  6
CONTINUOUS
 62
     7
100
AcDbLine
 10
-675.2869760332
 20
-404.6126642073
 30
0.0
 11
-675.2869760332
 21
-426.1649680214
 31
0.0
  0
LINE
  5
5EB
330
4F6
100
AcDbEntity
  8
0
  6
CONTINUOUS
 62
     7
100
AcDbLine
 10
-675.6405294237
 20
-426.3691363994
 30
0.0
 11
-738.5730329494
 21
-390.0389754233
 31
0.0
  0
LINE
  5
5EC
330
4F6
100
AcDbEntity
  8
0
  6
CONTINUOUS
 62
     7
100
AcDbLine
 10
-738.9265863399
 20
-389.4266029894
 30
0.0
 11
-738.9265863399
 21
-367.8742991753
 31
0.0
  0
LINE
  5
5ED
330
4F6
100
AcDbEntity
  8
0
  6
CONTINUOUS
 62
     7
100
AcDbLine
 10
-675.2869760332
 20
-404.6126642073
 30
0.0
 11
31.8198051534
 21
3.591391704
 31
0.0
  0
LINE
  5
5EE
330
4F6
100
AcDbEntity
  8
0
  6
CONTINUOUS
 62
     7
100
AcDbLine
 10
-675.709686021
 20
-403.9682551261
 30
0.0
 11
31.3970951655
 21
4.2358007852
 31
0.0
  0
LINE
  5
5EF
330
4F6
100
AcDbEntity
  8
0
  6
CONTINUOUS
 62
     7
100
AcDbLine
 10
-675.2869760332
 20
-426.1649680214
 30
0.0
 11
31.8198051534
 21
-17.9609121101
 31
0.0
  0
LINE
  5
5F0
330
4F6
100
AcDbEntity
  8
0
  6
CONTINUOUS
 62
     7
100
AcDbLine
 10
31.8198051534
 20
3.591391704
 30
0.0
 11
31.8198051534
 21
-17.9609121101
 31
0.0
  0
LINE
  5
5F1
330
4F6
100
AcDbEntity
  8
0
  6
CONTINUOUS
 62
     7
100
AcDbLine
 10
-677.1207914217
 20
-403.4710746794
 30
0.0
 11
29.9859897648
 21
4.7329812319
 31
0.0
  0
LINE
  5
5F2
330
4F6
100
AcDbEntity
  8
0
  6
CONTINUOUS
 62
     7
100
AcDbLine
 10
29.9859897648
 20
4.7329812319
 30
0.0
 11
31.3970951655
 21
4.2358007852
 31
0.0
  0
LINE
  5
5F3
330
4F6
100
AcDbEntity
  8
0
  6
CONTINUOUS
 62
     7
100
AcDbLine
 10
-680.5902768921
 20
-402.6662742868
 30
0.0
 11
26.5165042945
 21
5.5377816245
 31
0.0
  0
LINE
  5
5F4
330
4F6
100
AcDbEntity
  8
0
  6
CONTINUOUS
 62
     7
100
AcDbLine
 10
-681.0013312736
 20
-402.0261429856
 30
0.0
 11
26.1054499129
 21
6.1779129257
 31
0.0
  0
LINE
  5
5F5
330
4F6
100
AcDbEntity
  8
0
  6
CONTINUOUS
 62
     7
100
AcDbLine
 10
26.5165042945
 20
5.5377816245
 30
0.0
 11
26.5165042945
 21
2.8300836408
 31
0.0
  0
LINE
  5
5F6
330
4F6
100
AcDbEntity
  8
0
  6
CONTINUOUS
 62
     7
100
AcDbLine
 10
-682.4124366743
 20
-401.4726758904
 30
0.0
 11
24.6943445122
 21
6.731380021
 31
0.0
  0
LINE
  5
5F7
330
4F6
100
AcDbEntity
  8
0
  6
CONTINUOUS
 62
     7
100
AcDbLine
 10
24.6943445122
 20
6.731380021
 30
0.0
 11
26.1054499129
 21
6.1779129257
 31
0.0
  0
LINE
  5
5F8
330
4F6
100
AcDbEntity
  8
0
  6
CONTINUOUS
 62
     7
100
AcDbLine
 10
-685.893577751
 20
-400.5096421213
 30
0.0
 11
21.2132034356
 21
7.6944137901
 31
0.0
  0
LINE
  5
5F9
330
4F6
100
AcDbEntity
  8
0
  6
CONTINUOUS
 62
     7
100
AcDbLine
 10
-686.2929765263
 20
-399.874250671
 30
0.0
 11
20.8138046603
 21
8.3298052404
 31
0.0
  0
LINE
  5
5FA
330
4F6
100
AcDbEntity
  8
0
  6
CONTINUOUS
 62
     7
100
AcDbLine
 10
21.2132034356
 20
7.6944137901
 30
0.0
 11
21.2132034356
 21
4.8328841893
 31
0.0
  0
LINE
  5
5FB
330
4F6
100
AcDbEntity
  8
0
  6
CONTINUOUS
 62
     7
100
AcDbLine
 10
-687.704081927
 20
-399.2653940516
 30
0.0
 11
19.4026992596
 21
8.9386618598
 31
0.0
  0
LINE
  5
5FC
330
4F6
100
AcDbEntity
  8
0
  6
CONTINUOUS
 62
     7
100
AcDbLine
 10
19.4026992596
 20
8.9386618598
 30
0.0
 11
20.8138046603
 21
8.3298052404
 31
0.0
  0
LINE
  5
5FD
330
4F6
100
AcDbEntity
  8
0
  6
CONTINUOUS
 62
     7
100
AcDbLine
 10
-691.1968786099
 20
-398.1458546318
 30
0.0
 11
15.9099025767
 21
10.0582012795
 31
0.0
  0
LINE
  5
5FE
330
4F6
100
AcDbEntity
  8
0
  6
CONTINUOUS
 62
     7
100
AcDbLine
 10
-691.5846217789
 20
-397.5156583189
 30
0.0
 11
15.5221594077
 21
10.6883975924
 31
0.0
  0
LINE
  5
5FF
330
4F6
100
AcDbEntity
  8
0
  6
CONTINUOUS
 62
     7
100
AcDbLine
 10
15.9099025767
 20
10.0582012795
 30
0.0
 11
15.9099025767
 21
7.0450278823
 31
0.0
  0
LINE
  5
600
330
4F6
100
AcDbEntity
  8
0
  6
CONTINUOUS
 62
     7
100
AcDbLine
 10
-692.9957271796
 20
-396.8521056258
 30
0.0
 11
14.111054007
 21
11.3519502856
 31
0.0
  0
LINE
  5
601
330
4F6
100
AcDbEntity
  8
0
  6
CONTINUOUS
 62
     7
100
AcDbLine
 10
14.111054007
 20
11.3519502856
 30
0.0
 11
15.5221594077
 21
10.6883975924
 31
0.0
  0
LINE
  5
602
330
4F6
100
AcDbEntity
  8
0
  6
CONTINUOUS
 62
     7
100
AcDbLine
 10
-696.5001794688
 20
-395.577250872
 30
0.0
 11
10.6066017178
 21
12.6268050393
 31
0.0
  0
LINE
  5
603
330
4F6
100
AcDbEntity
  8
0
  6
CONTINUOUS
 62
     7
100
AcDbLine
 10
-696.8762670315
 20
-394.9526998421
 30
0.0
 11
10.2305141551
 21
13.2513560693
 31
0.0
  0
LINE
  5
604
330
4F6
100
AcDbEntity
  8
0
  6
CONTINUOUS
 62
     7
100
AcDbLine
 10
10.6066017178
 20
12.6268050393
 30
0.0
 11
10.6066017178
 21
9.4636319214
 31
0.0
  0
LINE
  5
605
330
4F6
100
AcDbEntity
  8
0
  6
CONTINUOUS
 62
     7
100
AcDbLine
 10
-698.2873724322
 20
-394.2349528296
 30
0.0
 11
8.8194087544
 21
13.9691030818
 31
0.0
  0
LINE
  5
606
330
4F6
100
AcDbEntity
  8
0
  6
CONTINUOUS
 62
     7
100
AcDbLine
 10
8.8194087544
 20
13.9691030818
 30
0.0
 11
10.2305141551
 21
13.2513560693
 31
0.0
  0
LINE
  5
607
330
4F6
100
AcDbEntity
  8
0
  6
CONTINUOUS
 62
     7
100
AcDbLine
 10
-715.2385091702
 20
-398.6104643971
 30
0.0
 11
-8.1317279836
 21
9.5935915143
 31
0.0
  0
LINE
  5
608
330
4F6
100
AcDbEntity
  8
0
  6
CONTINUOUS
 62
     7
100
AcDbLine
 10
-8.1317279836
 20
9.5935915143
 30
0.0
 11
-3.5734123508
 21
6.9621319117
 31
0.0
  0
LINE
  5
609
330
4F6
100
AcDbEntity
  8
0
  6
CONTINUOUS
 62
     7
100
AcDbLine
 10
-715.5920625608
 20
-384.6528215212
 30
0.0
 11
-8.4852813742
 21
23.5512343902
 31
0.0
  0
LINE
  5
60A
330
4F6
100
AcDbEntity
  8
0
  6
CONTINUOUS
 62
     7
100
AcDbLine
 10
-715.9261899409
 20
-384.0522802261
 30
0.0
 11
-8.8194087544
 21
24.1517756853
 31
0.0
  0
LINE
  5
60B
330
4F6
100
AcDbEntity
  8
0
  6
CONTINUOUS
 62
     7
100
AcDbLine
 10
-717.3372953416
 20
-383.140799622
 30
0.0
 11
-10.2305141551
 21
25.0632562893
 31
0.0
  0
LINE
  5
60C
330
4F6
100
AcDbEntity
  8
0
  6
CONTINUOUS
 62
     7
100
AcDbLine
 10
-10.2305141551
 20
25.0632562893
 30
0.0
 11
-8.8194087544
 21
24.1517756853
 31
0.0
  0
LINE
  5
60D
330
4F6
100
AcDbEntity
  8
0
  6
CONTINUOUS
 62
     7
100
AcDbLine
 10
-715.5920625608
 20
-397.9980919632
 30
0.0
 11
-8.4852813742
 21
10.2059639482
 31
0.0
  0
LINE
  5
60E
330
4F6
100
AcDbEntity
  8
0
  6
CONTINUOUS
 62
     7
100
AcDbLine
 10
-8.4852813742
 20
23.5512343902
 30
0.0
 11
-8.4852813742
 21
10.2059639482
 31
0.0
  0
LINE
  5
60F
330
4F6
100
AcDbEntity
  8
0
  6
CONTINUOUS
 62
     7
100
AcDbLine
 10
-720.8953634197
 20
-381.1526781324
 30
0.0
 11
-13.7885822331
 21
27.0513777789
 31
0.0
  0
LINE
  5
610
330
4F6
100
AcDbEntity
  8
0
  6
CONTINUOUS
 62
     7
100
AcDbLine
 10
-721.2178351935
 20
-380.5598294602
 30
0.0
 11
-14.111054007
 21
27.6442264512
 31
0.0
  0
LINE
  5
611
330
4F6
100
AcDbEntity
  8
0
  6
CONTINUOUS
 62
     7
100
AcDbLine
 10
-722.6289405942
 20
-379.5941545367
 30
0.0
 11
-15.5221594077
 21
28.6099013746
 31
0.0
  0
LINE
  5
612
330
4F6
100
AcDbEntity
  8
0
  6
CONTINUOUS
 62
     7
100
AcDbLine
 10
-15.5221594077
 20
28.6099013746
 30
0.0
 11
-14.111054007
 21
27.6442264512
 31
0.0
  0
LINE
  5
613
330
4F6
100
AcDbEntity
  8
0
  6
CONTINUOUS
 62
     7
100
AcDbLine
 10
-13.7885822331
 20
27.0513777789
 30
0.0
 11
-13.7885822331
 21
23.2051390397
 31
0.0
  0
LINE
  5
614
330
4F6
100
AcDbEntity
  8
0
  6
CONTINUOUS
 62
     7
100
AcDbLine
 10
-726.1986642786
 20
-377.4482213328
 30
0.0
 11
-19.091883092
 21
30.7558345785
 31
0.0
  0
LINE
  5
615
330
4F6
100
AcDbEntity
  8
0
  6
CONTINUOUS
 62
     7
100
AcDbLine
 10
-726.5094804461
 20
-376.8635143239
 30
0.0
 11
-19.4026992596
 21
31.3405415875
 31
0.0
  0
LINE
  5
616
330
4F6
100
AcDbEntity
  8
0
  6
CONTINUOUS
 62
     7
100
AcDbLine
 10
-727.9205858468
 20
-375.8431433267
 30
0.0
 11
-20.8138046603
 21
32.3609125846
 31
0.0
  0
LINE
  5
617
330
4F6
100
AcDbEntity
  8
0
  6
CONTINUOUS
 62
     7
100
AcDbLine
 10
-20.8138046603
 20
32.3609125846
 30
0.0
 11
-19.4026992596
 21
31.3405415875
 31
0.0
  0
LINE
  5
618
330
4F6
100
AcDbEntity
  8
0
  6
CONTINUOUS
 62
     7
100
AcDbLine
 10
-19.091883092
 20
30.7558345785
 30
0.0
 11
-19.091883092
 21
26.7595961186
 31
0.0
  0
LINE
  5
619
330
4F6
100
AcDbEntity
  8
0
  6
CONTINUOUS
 62
     7
100
AcDbLine
 10
-731.5019651375
 20
-373.5373041873
 30
0.0
 11
-24.3951839509
 21
34.6667517241
 31
0.0
  0
LINE
  5
61A
330
4F6
100
AcDbEntity
  8
0
  6
CONTINUOUS
 62
     7
100
AcDbLine
 10
-731.8011256988
 20
-372.9611926006
 30
0.0
 11
-24.6943445122
 21
35.2428633108
 31
0.0
  0
LINE
  5
61B
330
4F6
100
AcDbEntity
  8
0
  6
CONTINUOUS
 62
     7
100
AcDbLine
 10
-733.2122310995
 20
-371.8854320793
 30
0.0
 11
-26.1054499129
 21
36.3186238321
 31
0.0
  0
LINE
  5
61C
330
4F6
100
AcDbEntity
  8
0
  6
CONTINUOUS
 62
     7
100
AcDbLine
 10
-26.1054499129
 20
36.3186238321
 30
0.0
 11
-24.6943445122
 21
35.2428633108
 31
0.0
  0
LINE
  5
61D
330
4F6
100
AcDbEntity
  8
0
  6
CONTINUOUS
 62
     7
100
AcDbLine
 10
-24.3951839509
 20
34.6667517241
 30
0.0
 11
-24.3951839509
 21
30.5188694678
 31
0.0
  0
LINE
  5
61E
330
4F6
100
AcDbEntity
  8
0
  6
CONTINUOUS
 62
     7
100
AcDbLine
 10
-736.8052659964
 20
-369.4170438971
 30
0.0
 11
-29.6984848098
 21
38.7870120143
 31
0.0
  0
LINE
  5
61F
330
4F6
100
AcDbEntity
  8
0
  6
CONTINUOUS
 62
     7
100
AcDbLine
 10
-737.0927709514
 20
-368.8499878275
 30
0.0
 11
-29.9859897648
 21
39.3540680838
 31
0.0
  0
LINE
  5
620
330
4F6
100
AcDbEntity
  8
0
  6
CONTINUOUS
 62
     7
100
AcDbLine
 10
-738.5038763521
 20
-367.7179406576
 30
0.0
 11
-31.3970951655
 21
40.4861152537
 31
0.0
  0
LINE
  5
621
330
4F6
100
AcDbEntity
  8
0
  6
CONTINUOUS
 62
     7
100
AcDbLine
 10
-31.3970951655
 20
40.4861152537
 30
0.0
 11
-29.9859897648
 21
39.3540680838
 31
0.0
  0
LINE
  5
622
330
4F6
100
AcDbEntity
  8
0
  6
CONTINUOUS
 62
     7
100
AcDbLine
 10
-29.6984848098
 20
38.7870120143
 30
0.0
 11
-29.6984848098
 21
34.4852981409
 31
0.0
  0
LINE
  5
623
330
4F6
100
AcDbEntity
  8
0
  6
CONTINUOUS
 62
     8
100
AcDbLine
 10
-680.5902768921
 20
-418.2041927308
 30
0.0
 11
-677.4082963767
 21
-416.3672744792
 31
0.0
  0
LINE
  5
624
330
4F6
100
AcDbEntity
  8
0
  6
CONTINUOUS
 62
     8
100
AcDbLine
 10
-685.893577751
 20
-415.1426623114
 30
0.0
 11
-682.7115972356
 21
-413.3057440598
 31
0.0
  0
LINE
  5
625
330
4F6
100
AcDbEntity
  8
0
  6
CONTINUOUS
 62
     8
100
AcDbLine
 10
-677.7618497673
 20
-420.2452793604
 30
0.0
 11
-677.4082963814
 21
-420.0411773351
 31
0.0
  0
LINE
  5
626
330
4F6
100
AcDbEntity
  8
0
  6
CONTINUOUS
 62
     8
100
AcDbLine
 10
-680.2367235015
 20
-418.8165651647
 30
0.0
 11
-677.4082963767
 21
-417.183748941
 31
0.0
  0
LINE
  5
627
330
4F6
100
AcDbEntity
  8
0
  6
CONTINUOUS
 62
     8
100
AcDbLine
 10
-691.1968786099
 20
-412.0811318921
 30
0.0
 11
-688.0148980945
 21
-410.2442136405
 31
0.0
  0
LINE
  5
628
330
4F6
100
AcDbEntity
  8
0
  6
CONTINUOUS
 62
     8
100
AcDbLine
 10
-683.0651506262
 20
-417.183748941
 30
0.0
 11
-682.7115972403
 21
-416.9796469158
 31
0.0
  0
LINE
  5
629
330
4F6
100
AcDbEntity
  8
0
  6
CONTINUOUS
 62
     8
100
AcDbLine
 10
-685.5400243604
 20
-415.7550347453
 30
0.0
 11
-682.7115972356
 21
-414.1222185217
 31
0.0
  0
LINE
  5
62A
330
4F6
100
AcDbEntity
  8
0
  6
CONTINUOUS
 62
     8
100
AcDbLine
 10
-696.5001794688
 20
-409.0196014728
 30
0.0
 11
-693.3181989534
 21
-407.1826832212
 31
0.0
  0
LINE
  5
62B
330
4F6
100
AcDbEntity
  8
0
  6
CONTINUOUS
 62
     8
100
AcDbLine
 10
-688.3684514851
 20
-414.1222185217
 30
0.0
 11
-688.0148980992
 21
-413.9181164964
 31
0.0
  0
LINE
  5
62C
330
4F6
100
AcDbEntity
  8
0
  6
CONTINUOUS
 62
     8
100
AcDbLine
 10
-690.8433252193
 20
-412.693504326
 30
0.0
 11
-688.0148980945
 21
-411.0606881024
 31
0.0
  0
LINE
  5
62D
330
4F6
100
AcDbEntity
  8
0
  6
CONTINUOUS
 62
     8
100
AcDbLine
 10
-693.671752344
 20
-411.0606881024
 30
0.0
 11
-693.3181989581
 21
-410.8565860771
 31
0.0
  0
LINE
  5
62E
330
4F6
100
AcDbEntity
  8
0
  6
CONTINUOUS
 62
     8
100
AcDbLine
 10
-696.1466260782
 20
-409.6319739067
 30
0.0
 11
-693.3181989534
 21
-407.999157683
 31
0.0
  0
LINE
  5
62F
330
4F6
100
AcDbEntity
  8
0
  6
CONTINUOUS
 62
     8
100
AcDbLine
 10
-698.9750532029
 20
-407.999157683
 30
0.0
 11
-698.621499817
 21
-407.7950556578
 31
0.0
  0
LINE
  5
630
330
4F6
100
AcDbEntity
  8
0
  6
CONTINUOUS
 62
     8
100
AcDbLine
 10
-720.8953634197
 20
-394.9365615438
 30
0.0
 11
-717.7133829043
 21
-393.0996432922
 31
0.0
  0
LINE
  5
631
330
4F6
100
AcDbEntity
  8
0
  6
CONTINUOUS
 62
     8
100
AcDbLine
 10
-726.1986642786
 20
-391.8750311245
 30
0.0
 11
-723.0166837632
 21
-390.0381128729
 31
0.0
  0
LINE
  5
632
330
4F6
100
AcDbEntity
  8
0
  6
CONTINUOUS
 62
     8
100
AcDbLine
 10
-718.0669362949
 20
-396.9776481734
 30
0.0
 11
-717.713382909
 21
-396.7735461482
 31
0.0
  0
LINE
  5
633
330
4F6
100
AcDbEntity
  8
0
  6
CONTINUOUS
 62
     8
100
AcDbLine
 10
-731.5019651375
 20
-388.8135007052
 30
0.0
 11
-728.3199846221
 21
-386.9765824536
 31
0.0
  0
LINE
  5
634
330
4F6
100
AcDbEntity
  8
0
  6
CONTINUOUS
 62
     8
100
AcDbLine
 10
-720.5418100291
 20
-395.5489339777
 30
0.0
 11
-717.7133829043
 21
-393.9161177541
 31
0.0
  0
LINE
  5
635
330
4F6
100
AcDbEntity
  8
0
  6
CONTINUOUS
 62
     8
100
AcDbLine
 10
-736.8052659964
 20
-385.7519702858
 30
0.0
 11
-733.623285481
 21
-383.9150520342
 31
0.0
  0
LINE
  5
636
330
4F6
100
AcDbEntity
  8
0
  6
CONTINUOUS
 62
     8
100
AcDbLine
 10
-723.3702371538
 20
-393.9161177541
 30
0.0
 11
-723.0166837679
 21
-393.7120157288
 31
0.0
  0
LINE
  5
637
330
4F6
100
AcDbEntity
  8
0
  6
CONTINUOUS
 62
     8
100
AcDbLine
 10
-725.845110888
 20
-392.4874035584
 30
0.0
 11
-723.0166837632
 21
-390.8545873347
 31
0.0
  0
LINE
  5
638
330
4F6
100
AcDbEntity
  8
0
  6
CONTINUOUS
 62
     8
100
AcDbLine
 10
-728.6735380127
 20
-390.8545873347
 30
0.0
 11
-728.3199846268
 21
-390.6504853095
 31
0.0
  0
LINE
  5
639
330
4F6
100
AcDbEntity
  8
0
  6
CONTINUOUS
 62
     8
100
AcDbLine
 10
-731.1484117469
 20
-389.4258731391
 30
0.0
 11
-728.3199846221
 21
-387.7930569154
 31
0.0
  0
LINE
  5
63A
330
4F6
100
AcDbEntity
  8
0
  6
CONTINUOUS
 62
     8
100
AcDbLine
 10
-733.9768388716
 20
-387.7930569154
 30
0.0
 11
-733.6232854857
 21
-387.5889548901
 31
0.0
  0
LINE
  5
63B
330
4F6
100
AcDbEntity
  8
0
  6
CONTINUOUS
 62
     8
100
AcDbLine
 10
-736.4517126058
 20
-386.3643427197
 30
0.0
 11
-733.623285481
 21
-384.7315264961
 31
0.0
  0
ARC
  5
63C
330
4F6
100
AcDbEntity
  8
0
  6
CONTINUOUS
 62
     7
100
AcDbCircle
 10
-737.5867524602
 20
-369.4568554593
 30
0.0
 40
0.7824998745077426
100
AcDbArc
 50
2.9163196007
 51
50.8549071936
  0
ARC
  5
63D
330
4F6
100
AcDbEntity
  8
0
  6
CONTINUOUS
 62
     7
100
AcDbCircle
 10
-736.0376579457
 20
-385.7170398597
 30
0.0
 40
0.7684024037857999
100
AcDbArc
 50
182.6054784856
 51
237.39452166
  0
ARC
  5
63E
330
4F6
100
AcDbEntity
  8
0
  6
CONTINUOUS
 62
     7
100
AcDbCircle
 10
-733.8388226648
 20
-387.6238521359
 30
0.0
 40
0.2183545987143658
100
AcDbArc
 50
230.7967147643
 51
9.2140369905
  0
ARC
  5
63F
330
4F6
100
AcDbEntity
  8
0
  6
CONTINUOUS
 62
     7
100
AcDbCircle
 10
-732.2821222675
 20
-373.576691425
 30
0.0
 40
0.7811507549675553
100
AcDbArc
 50
2.8901973316
 51
51.9932846826
  0
ARC
  5
640
330
4F6
100
AcDbEntity
  8
0
  6
CONTINUOUS
 62
     7
100
AcDbCircle
 10
-730.7343570868
 20
-388.778570279
 30
0.0
 40
0.7684024037866074
100
AcDbArc
 50
182.6054784857
 51
237.39452166
  0
ARC
  5
641
330
4F6
100
AcDbEntity
  8
0
  6
CONTINUOUS
 62
     7
100
AcDbCircle
 10
-728.5355218059
 20
-390.6853825552
 30
0.0
 40
0.2183545987142536
100
AcDbArc
 50
230.7967147643
 51
9.2140369905
  0
ARC
  5
642
330
4F6
100
AcDbEntity
  8
0
  6
CONTINUOUS
 62
     7
100
AcDbCircle
 10
-726.977001013
 20
-377.4870017003
 30
0.0
 40
0.7793022450194442
100
AcDbArc
 50
2.8523842682
 51
53.1356879871
  0
ARC
  5
643
330
4F6
100
AcDbEntity
  8
0
  6
CONTINUOUS
 62
     7
100
AcDbCircle
 10
-725.4310562279
 20
-391.8401006984
 30
0.0
 40
0.7684024037867261
100
AcDbArc
 50
182.6054784857
 51
237.39452166
  0
ARC
  5
644
330
4F6
100
AcDbEntity
  8
0
  6
CONTINUOUS
 62
     7
100
AcDbCircle
 10
-723.232220947
 20
-393.7469129745
 30
0.0
 40
0.2183545987142432
100
AcDbArc
 50
230.7967147643
 51
9.2140369904
  0
ARC
  5
645
330
4F6
100
AcDbEntity
  8
0
  6
CONTINUOUS
 62
     7
100
AcDbCircle
 10
-721.6713986853
 20
-381.190665351
 30
0.0
 40
0.7769644537014704
100
AcDbArc
 50
2.8024130954
 51
54.2843148259
  0
ARC
  5
646
330
4F6
100
AcDbEntity
  8
0
  6
CONTINUOUS
 62
     7
100
AcDbCircle
 10
-720.127755369
 20
-394.9016311177
 30
0.0
 40
0.7684024037856781
100
AcDbArc
 50
182.6054784856
 51
237.39452166
  0
ARC
  5
647
330
4F6
100
AcDbEntity
  8
0
  6
CONTINUOUS
 62
     7
100
AcDbCircle
 10
-717.9289200881
 20
-396.8084433939
 30
0.0
 40
0.2183545987141111
100
AcDbArc
 50
230.7967147643
 51
9.2140369905
  0
ARC
  5
648
330
4F6
100
AcDbEntity
  8
0
  6
CONTINUOUS
 62
     7
100
AcDbCircle
 10
-716.3653239409
 20
-384.6898253419
 30
0.0
 40
0.7741462683002082
100
AcDbArc
 50
2.7397547853
 51
55.4413606423
  0
ARC
  5
649
330
4F6
100
AcDbEntity
  8
0
  6
CONTINUOUS
 62
     7
100
AcDbCircle
 10
-714.8244545101
 20
-397.963161537
 30
0.0
 40
0.76840240378535
100
AcDbArc
 50
182.6054784856
 51
237.39452166
  0
ARC
  5
64A
330
4F6
100
AcDbEntity
  8
0
  6
CONTINUOUS
 62
     7
100
AcDbCircle
 10
-698.837036996
 20
-407.8299529035
 30
0.0
 40
0.218354598714271
100
AcDbArc
 50
230.7967147643
 51
9.2140369905
  0
ARC
  5
64B
330
4F6
100
AcDbEntity
  8
0
  6
CONTINUOUS
 62
     7
100
AcDbCircle
 10
-698.4092184573
 20
-394.4126843073
 30
0.0
 40
0.2154876609450775
100
AcDbArc
 50
55.5669288484
 51
189.89620944
  0
ARC
  5
64C
330
4F6
100
AcDbEntity
  8
0
  6
CONTINUOUS
 62
     7
100
AcDbCircle
 10
-697.2596464535
 20
-395.6090707945
 30
0.0
 40
0.7601332832628809
100
AcDbArc
 50
2.3991583893
 51
59.7112453274
  0
ARC
  5
64D
330
4F6
100
AcDbEntity
  8
0
  6
CONTINUOUS
 62
     7
100
AcDbCircle
 10
-695.7325714181
 20
-408.9846710466
 30
0.0
 40
0.7684024037861408
100
AcDbArc
 50
182.6054784856
 51
237.39452166
  0
ARC
  5
64E
330
4F6
100
AcDbEntity
  8
0
  6
CONTINUOUS
 62
     7
100
AcDbCircle
 10
-693.5337361371
 20
-410.8914833228
 30
0.0
 40
0.2183545987142988
100
AcDbArc
 50
230.7967147642
 51
9.2140369905
  0
ARC
  5
64F
330
4F6
100
AcDbEntity
  8
0
  6
CONTINUOUS
 62
     7
100
AcDbCircle
 10
-691.9514767217
 20
-398.1757567177
 30
0.0
 40
0.7551903370450478
100
AcDbArc
 50
2.2692442228
 51
60.9365346439
  0
ARC
  5
650
330
4F6
100
AcDbEntity
  8
0
  6
CONTINUOUS
 62
     7
100
AcDbCircle
 10
-690.4292705592
 20
-412.046201466
 30
0.0
 40
0.7684024037857865
100
AcDbArc
 50
182.6054784856
 51
237.39452166
  0
ARC
  5
651
330
4F6
100
AcDbEntity
  8
0
  6
CONTINUOUS
 62
     7
100
AcDbCircle
 10
-688.2304352782
 20
-413.9530137422
 30
0.0
 40
0.2183545987143385
100
AcDbArc
 50
230.7967147643
 51
9.2140369904
  0
ARC
  5
652
330
4F6
100
AcDbEntity
  8
0
  6
CONTINUOUS
 62
     7
100
AcDbCircle
 10
-686.6428618475
 20
-400.5374081734
 30
0.0
 40
0.7497983801826913
100
AcDbArc
 50
2.122225742
 51
62.1836396354
  0
ARC
  5
653
330
4F6
100
AcDbEntity
  8
0
  6
CONTINUOUS
 62
     7
100
AcDbCircle
 10
-685.1259697003
 20
-415.1077318853
 30
0.0
 40
0.7684024037861479
100
AcDbArc
 50
182.6054784857
 51
237.39452166
  0
ARC
  5
654
330
4F6
100
AcDbEntity
  8
0
  6
CONTINUOUS
 62
     7
100
AcDbCircle
 10
-682.9271344193
 20
-417.0145441615
 30
0.0
 40
0.2183545987143591
100
AcDbArc
 50
230.7967147643
 51
9.2140369904
  0
ARC
  5
655
330
4F6
100
AcDbEntity
  8
0
  6
CONTINUOUS
 62
     7
100
AcDbCircle
 10
-681.3338031881
 20
-402.6916797749
 30
0.0
 40
0.7439602084544467
100
AcDbArc
 50
1.9569733555
 51
63.4553715415
  0
ARC
  5
656
330
4F6
100
AcDbEntity
  8
0
  6
CONTINUOUS
 62
     7
100
AcDbCircle
 10
-679.8226688414
 20
-418.1692623046
 30
0.0
 40
0.7684024037863801
100
AcDbArc
 50
182.6054784857
 51
237.39452166
  0
ARC
  5
657
330
4F6
100
AcDbEntity
  8
0
  6
CONTINUOUS
 62
     7
100
AcDbCircle
 10
-677.6238335604
 20
-420.0760745808
 30
0.0
 40
0.2183545987143151
100
AcDbArc
 50
230.7967147643
 51
9.2140369904
  0
ARC
  5
658
330
4F6
100
AcDbEntity
  8
0
  6
CONTINUOUS
 62
     7
100
AcDbCircle
 10
-676.0243010256
 20
-404.6354777277
 30
0.0
 40
0.737677843811004
100
AcDbArc
 50
1.7722192631
 51
64.7547491339
  0
ARC
  5
659
330
4F6
100
AcDbEntity
  8
0
  6
CONTINUOUS
 62
     7
100
AcDbCircle
 10
-675.5025132169
 20
-426.1999316199
 30
0.0
 40
0.2183545987143869
100
AcDbArc
 50
230.7967147643
 51
9.2140369904
  0
ARC
  5
65A
330
4F6
100
AcDbEntity
  8
0
  6
CONTINUOUS
 62
     7
100
AcDbCircle
 10
-738.1589782893
 20
-389.3916725633
 30
0.0
 40
0.7684024037852887
100
AcDbArc
 50
182.6054784856
 51
237.39452166
  0
ARC
  5
65B
330
4F6
100
AcDbEntity
  8
0
  6
CONTINUOUS
 62
     7
100
AcDbCircle
 10
31.0824801609
 20
3.5685781836
 30
0.0
 40
0.7376778438109012
100
AcDbArc
 50
1.7722192631
 51
64.7547491339
  0
ARC
  5
65C
330
4F6
100
AcDbEntity
  8
0
  6
CONTINUOUS
 62
     7
100
AcDbCircle
 10
29.9005042924
 20
4.5372571399
 30
0.0
 40
0.2135782905781207
100
AcDbArc
 50
66.4059689274
 51
117.4474776908
  0
ARC
  5
65D
330
4F6
100
AcDbEntity
  8
0
  6
CONTINUOUS
 62
     7
100
AcDbCircle
 10
25.7729779984
 20
5.5123761365
 30
0.0
 40
0.7439602084543665
100
AcDbArc
 50
1.9569733555
 51
63.4553715416
  0
ARC
  5
65E
330
4F6
100
AcDbEntity
  8
0
  6
CONTINUOUS
 62
     7
100
AcDbCircle
 10
24.5983462246
 20
6.5338720799
 30
0.0
 40
0.2196020446386077
100
AcDbArc
 50
64.0780356484
 51
116.9681817271
  0
ARC
  5
65F
330
4F6
100
AcDbEntity
  8
0
  6
CONTINUOUS
 62
     7
100
AcDbCircle
 10
20.4639193391
 20
7.666647738
 30
0.0
 40
0.7497983801827491
100
AcDbArc
 50
2.122225742
 51
62.1836396354
  0
ARC
  5
660
330
4F6
100
AcDbEntity
  8
0
  6
CONTINUOUS
 62
     7
100
AcDbCircle
 10
19.2960986573
 20
8.7394743548
 30
0.0
 40
0.2259189025605865
100
AcDbArc
 50
61.8453278499
 51
116.4539129214
  0
ARC
  5
661
330
4F6
100
AcDbEntity
  8
0
  6
CONTINUOUS
 62
     7
100
AcDbCircle
 10
15.1553044648
 20
10.0282991937
 30
0.0
 40
0.755190337044194
100
AcDbArc
 50
2.2692442227
 51
60.9365346439
  0
ARC
  5
662
330
4F6
100
AcDbEntity
  8
0
  6
CONTINUOUS
 62
     7
100
AcDbCircle
 10
31.5748042022
 20
-17.9879554787
 30
0.0
 40
0.2464889649986727
100
AcDbArc
 50
305.0133328746
 51
6.2988475188
  0
ARC
  5
663
330
4F6
100
AcDbEntity
  8
0
  6
CONTINUOUS
 62
     7
100
AcDbCircle
 10
13.9937476453
 20
11.1511875857
 30
0.0
 40
0.2325219218901623
100
AcDbArc
 50
59.702103648
 51
115.9070437185
  0
ARC
  5
664
330
4F6
100
AcDbEntity
  8
0
  6
CONTINUOUS
 62
     7
100
AcDbCircle
 10
9.8471347331
 20
12.5949851169
 30
0.0
 40
0.7601332832625277
100
AcDbArc
 50
2.3991583893
 51
59.7112453274
  0
ARC
  5
665
330
4F6
100
AcDbEntity
  8
0
  6
CONTINUOUS
 62
     7
100
AcDbCircle
 10
8.6912799115
 20
13.7668707331
 30
0.0
 40
0.2394053534401937
100
AcDbArc
 50
57.6427796954
 51
115.3299350317
  0
ARC
  5
666
330
4F6
100
AcDbEntity
  8
0
  6
CONTINUOUS
 62
     7
100
AcDbCircle
 10
-9.2585427543
 20
23.5142305694
 30
0.0
 40
0.7741462682996494
100
AcDbArc
 50
2.7397547852
 51
55.4413606423
  0
ARC
  5
667
330
4F6
100
AcDbEntity
  8
0
  6
CONTINUOUS
 62
     7
100
AcDbCircle
 10
-10.3965177685
 20
24.8725037417
 30
0.0
 40
0.252870983170949
100
AcDbArc
 50
48.9683723957
 51
114.9106174624
  0
ARC
  5
668
330
4F6
100
AcDbEntity
  8
0
  6
CONTINUOUS
 62
     7
100
AcDbCircle
 10
-14.5646174988
 20
27.0133905603
 30
0.0
 40
0.7769644537016972
100
AcDbArc
 50
2.8024130954
 51
54.2843148259
  0
ARC
  5
669
330
4F6
100
AcDbEntity
  8
0
  6
CONTINUOUS
 62
     7
100
AcDbCircle
 10
-15.6991432474
 20
28.4193919331
 30
0.0
 40
0.2600329340766378
100
AcDbArc
 50
47.1078215563
 51
114.3431217244
  0
ARC
  5
66A
330
4F6
100
AcDbEntity
  8
0
  6
CONTINUOUS
 62
     7
100
AcDbCircle
 10
-19.8702198265
 20
30.717054211
 30
0.0
 40
0.7793022450205417
100
AcDbArc
 50
2.8523842683
 51
53.1356879871
  0
ARC
  5
66B
330
4F6
100
AcDbEntity
  8
0
  6
CONTINUOUS
 62
     7
100
AcDbCircle
 10
-21.0019008861
 20
32.1707958433
 30
0.0
 40
0.2674407700313922
100
AcDbArc
 50
45.3060865632
 51
113.75420312
  0
ARC
  5
66C
330
4F6
100
AcDbEntity
  8
0
  6
CONTINUOUS
 62
     7
100
AcDbCircle
 10
-7.7176733236
 20
10.2408943743
 30
0.0
 40
0.7684024037860154
100
AcDbArc
 50
182.6054784857
 51
237.39452166
  0
ARC
  5
66D
330
4F6
100
AcDbEntity
  8
0
  6
CONTINUOUS
 62
     7
100
AcDbCircle
 10
-25.1753410809
 20
34.6273644864
 30
0.0
 40
0.7811507549665833
100
AcDbArc
 50
2.8901973316
 51
51.9932846826
  0
ARC
  5
66E
330
4F6
100
AcDbEntity
  8
0
  6
CONTINUOUS
 62
     7
100
AcDbCircle
 10
-26.3048010346
 20
36.1290559497
 30
0.0
 40
0.2750942597286929
100
AcDbArc
 50
43.5590312408
 51
113.1452631738
  0
ARC
  5
66F
330
4F6
100
AcDbEntity
  8
0
  6
CONTINUOUS
 62
     7
100
AcDbCircle
 10
-30.4799712736
 20
38.747200452
 30
0.0
 40
0.7824998745073081
100
AcDbArc
 50
2.9163196007
 51
50.8549071936
  0
ARC
  5
670
330
4F6
100
AcDbEntity
  8
0
  6
CONTINUOUS
 62
     7
100
AcDbCircle
 10
-31.6078540304
 20
40.2972601695
 30
0.0
 40
0.2829938902747225
100
AcDbArc
 50
41.8626229852
 51
112.5176076807
  0
VIEWPORT
  5
987
330
4F6
100
AcDbEntity
  8
0
100
AcDbViewport
 10
0.0
 20
0.0
 30
0.0
 40
205.6
 41
156.0
 68
     1
 69
     1
1001
ACAD
1000
MVIEW
1002
{
1070
    16
1010
0.0
1020
0.0
1030
0.0
1010
0.0
1020
0.0
1030
1.0
1040
0.0
1040
596.5052109039
1040
353.5524304769
1040
-192.8681346605
1040
50.0
1040
0.0
1040
0.0
1070
     0
1070
   100
1070
     0
1070
     3
1070
     0
1070
     0
1070
     0
1070
     0
1040
0.0
1040
0.0
1040
0.0
1040
10.0
1040
10.0
1040
10.0
1040
10.0
1070
     0
1002
{
1002
}
1002
}
  0
ENDBLK
  5
4F9
330
4F6
100
AcDbEntity
  8
0
100
AcDbBlockEnd
  0
BLOCK
  5
673
330
671
100
AcDbEntity
  8
0
100
AcDbBlockBegin
  2
*PAPER_SPACE7
 70
     0
 10
0.0
 20
0.0
 30
0.0
  3
*PAPER_SPACE7
  1

  0
LINE
  5
735
330
671
100
AcDbEntity
  8
0
  6
CONTINUOUS
 62
     7
100
AcDbLine
 10
37.238531092
 20
12.8615132801
 30
0.0
 11
-429.4568578381
 21
-442.6474935242
 31
0.0
  0
LINE
  5
736
330
671
100
AcDbEntity
  8
0
  6
CONTINUOUS
 62
     7
100
AcDbLine
 10
30.6053951794
 20
13.552851162
 30
0.0
 11
-436.0899937507
 21
-441.9561556423
 31
0.0
  0
LINE
  5
737
330
671
100
AcDbEntity
  8
0
  6
CONTINUOUS
 62
     7
100
AcDbLine
 10
23.9722592668
 20
14.4639479287
 30
0.0
 11
-442.7231296633
 21
-441.0450588756
 31
0.0
  0
LINE
  5
738
330
671
100
AcDbEntity
  8
0
  6
CONTINUOUS
 62
     7
100
AcDbLine
 10
17.3391233542
 20
15.5917773496
 30
0.0
 11
-449.3562655758
 21
-439.9172294547
 31
0.0
  0
LINE
  5
739
330
671
100
AcDbEntity
  8
0
  6
CONTINUOUS
 62
     7
100
AcDbLine
 10
-426.9895434361
 20
-466.1345211538
 30
0.0
 11
39.705845494
 21
-10.6255143495
 31
0.0
  0
LINE
  5
73A
330
671
100
AcDbEntity
  8
0
  6
CONTINUOUS
 62
     7
100
AcDbLine
 10
10.7059874416
 20
16.9340856703
 30
0.0
 11
-455.9894014884
 21
-438.574921134
 31
0.0
  0
LINE
  5
73B
330
671
100
AcDbEntity
  8
0
  6
CONTINUOUS
 62
     7
100
AcDbLine
 10
-13.1733018436
 20
23.5258751494
 30
0.0
 11
-479.8686907737
 21
-431.9831316549
 31
0.0
  0
LINE
  5
73C
330
671
100
AcDbEntity
  8
0
  6
CONTINUOUS
 62
     7
100
AcDbLine
 10
-19.8064377562
 20
25.8460712836
 30
0.0
 11
-486.5018266863
 21
-429.6629355207
 31
0.0
  0
LINE
  5
73D
330
671
100
AcDbEntity
  8
0
  6
CONTINUOUS
 62
     7
100
AcDbLine
 10
-26.4395736688
 20
28.3812741965
 30
0.0
 11
-493.1349625989
 21
-427.1277326078
 31
0.0
  0
LINE
  5
73E
330
671
100
AcDbEntity
  8
0
  6
CONTINUOUS
 62
     7
100
AcDbLine
 10
-33.0727095814
 20
31.1339393197
 30
0.0
 11
-499.7680985115
 21
-424.3750674846
 31
0.0
  0
LINE
  5
73F
330
671
100
AcDbEntity
  8
0
  6
CONTINUOUS
 62
     7
100
AcDbLine
 10
-39.705845494
 20
34.1073071623
 30
0.0
 11
-506.401234424
 21
-421.401699642
 31
0.0
  0
LINE
  5
740
330
671
100
AcDbEntity
  8
0
  6
CONTINUOUS
 62
     7
100
AcDbLine
 10
-505.9654973086
 20
-421.3627189906
 30
0.0
 11
-504.2005486175
 21
-422.175621291
 31
0.0
  0
LINE
  5
741
330
671
100
AcDbEntity
  8
0
  6
CONTINUOUS
 62
     7
100
AcDbLine
 10
-503.8409500405
 20
-422.6943911098
 30
0.0
 11
-503.8409500405
 21
-439.842051773
 31
0.0
  0
LINE
  5
742
330
671
100
AcDbEntity
  8
0
  6
CONTINUOUS
 62
     7
100
AcDbLine
 10
-503.3987409797
 20
-440.3908183707
 30
0.0
 11
-500.3032775538
 21
-441.2320990021
 31
0.0
  0
LINE
  5
743
330
671
100
AcDbEntity
  8
0
  6
CONTINUOUS
 62
     7
100
AcDbLine
 10
-499.861068493
 20
-440.9236982991
 30
0.0
 11
-499.861068493
 21
-424.6127002237
 31
0.0
  0
LINE
  5
744
330
671
100
AcDbEntity
  8
0
  6
CONTINUOUS
 62
     7
100
AcDbLine
 10
-499.3469397167
 20
-424.3295519588
 30
0.0
 11
-497.5819910256
 21
-425.0833671029
 31
0.0
  0
LINE
  5
745
330
671
100
AcDbEntity
  8
0
  6
CONTINUOUS
 62
     7
100
AcDbLine
 10
-497.2078141279
 20
-425.6085416482
 30
0.0
 11
-497.2078141279
 21
-441.6447959831
 31
0.0
  0
LINE
  5
746
330
671
100
AcDbEntity
  8
0
  6
CONTINUOUS
 62
     7
100
AcDbLine
 10
-496.7656050671
 20
-442.1935625808
 30
0.0
 11
-493.6701416412
 21
-443.0348432122
 31
0.0
  0
LINE
  5
747
330
671
100
AcDbEntity
  8
0
  6
CONTINUOUS
 62
     7
100
AcDbLine
 10
-493.2279325804
 20
-442.7264425092
 30
0.0
 11
-493.2279325804
 21
-427.3653653469
 31
0.0
  0
LINE
  5
748
330
671
100
AcDbEntity
  8
0
  6
CONTINUOUS
 62
     7
100
AcDbLine
 10
-492.7283821248
 20
-427.0761672686
 30
0.0
 11
-490.9634334337
 21
-427.7718370166
 31
0.0
  0
LINE
  5
749
330
671
100
AcDbEntity
  8
0
  6
CONTINUOUS
 62
     7
100
AcDbLine
 10
-490.5746782154
 20
-428.3029333018
 30
0.0
 11
-490.5746782154
 21
-443.4475401932
 31
0.0
  0
LINE
  5
74A
330
671
100
AcDbEntity
  8
0
  6
CONTINUOUS
 62
     7
100
AcDbLine
 10
-490.1324691545
 20
-443.9963067909
 30
0.0
 11
-487.0370057286
 21
-444.8375874223
 31
0.0
  0
LINE
  5
74B
330
671
100
AcDbEntity
  8
0
  6
CONTINUOUS
 62
     7
100
AcDbLine
 10
-486.5947966678
 20
-444.5291867193
 30
0.0
 11
-486.5947966678
 21
-429.9005682598
 31
0.0
  0
LINE
  5
74C
330
671
100
AcDbEntity
  8
0
  6
CONTINUOUS
 62
     7
100
AcDbLine
 10
-486.109824533
 20
-429.605798307
 30
0.0
 11
-484.3448758418
 21
-430.2440506115
 31
0.0
  0
LINE
  5
74D
330
671
100
AcDbEntity
  8
0
  6
CONTINUOUS
 62
     7
100
AcDbLine
 10
-483.9415423028
 20
-430.7805923011
 30
0.0
 11
-483.9415423028
 21
-445.2502844034
 31
0.0
  0
LINE
  5
74E
330
671
100
AcDbEntity
  8
0
  6
CONTINUOUS
 62
     7
100
AcDbLine
 10
-483.4993332419
 20
-445.7990510011
 30
0.0
 11
-480.4038698161
 21
-446.6403316325
 31
0.0
  0
LINE
  5
74F
330
671
100
AcDbEntity
  8
0
  6
CONTINUOUS
 62
     7
100
AcDbLine
 10
-479.9616607552
 20
-446.3319309295
 30
0.0
 11
-479.9616607552
 21
-432.220764394
 31
0.0
  0
LINE
  5
750
330
671
100
AcDbEntity
  8
0
  6
CONTINUOUS
 62
     7
100
AcDbLine
 10
-479.4912669411
 20
-431.920895109
 30
0.0
 11
-477.7263182499
 21
-432.5022566889
 31
0.0
  0
LINE
  5
751
330
671
100
AcDbEntity
  8
0
  6
CONTINUOUS
 62
     7
100
AcDbLine
 10
-477.3084063902
 20
-433.0437724007
 30
0.0
 11
-477.3084063902
 21
-447.0530286135
 31
0.0
  0
LINE
  5
752
330
671
100
AcDbEntity
  8
0
  6
CONTINUOUS
 62
     7
100
AcDbLine
 10
-476.8661973294
 20
-447.6017952112
 30
0.0
 11
-456.5245805308
 21
-453.1302107889
 31
0.0
  0
LINE
  5
753
330
671
100
AcDbEntity
  8
0
  6
CONTINUOUS
 62
     7
100
AcDbLine
 10
-456.0823714699
 20
-452.8218100859
 30
0.0
 11
-456.0823714699
 21
-438.8125538731
 31
0.0
  0
LINE
  5
754
330
671
100
AcDbEntity
  8
0
  6
CONTINUOUS
 62
     7
100
AcDbLine
 10
-455.6644596102
 20
-438.4981971387
 30
0.0
 11
-453.8995109191
 21
-438.8761860308
 31
0.0
  0
LINE
  5
755
330
671
100
AcDbEntity
  8
0
  6
CONTINUOUS
 62
     7
100
AcDbLine
 10
-453.4291171049
 20
-439.4317412345
 30
0.0
 11
-453.4291171049
 21
-453.54290777
 31
0.0
  0
LINE
  5
756
330
671
100
AcDbEntity
  8
0
  6
CONTINUOUS
 62
     7
100
AcDbLine
 10
-452.9869080441
 20
-454.0916743677
 30
0.0
 11
-449.8914446182
 21
-454.9329549991
 31
0.0
  0
LINE
  5
757
330
671
100
AcDbEntity
  8
0
  6
CONTINUOUS
 62
     7
100
AcDbLine
 10
-449.4492355574
 20
-454.624554296
 30
0.0
 11
-449.4492355574
 21
-440.1548621938
 31
0.0
  0
LINE
  5
758
330
671
100
AcDbEntity
  8
0
  6
CONTINUOUS
 62
     7
100
AcDbLine
 10
-449.0459020183
 20
-439.8375553312
 30
0.0
 11
-447.2809533272
 21
-440.1586534986
 31
0.0
  0
LINE
  5
759
330
671
100
AcDbEntity
  8
0
  6
CONTINUOUS
 62
     7
100
AcDbLine
 10
-446.7959811923
 20
-440.7170335206
 30
0.0
 11
-446.7959811923
 21
-455.3456519801
 31
0.0
  0
LINE
  5
75A
330
671
100
AcDbEntity
  8
0
  6
CONTINUOUS
 62
     7
100
AcDbLine
 10
-446.3537721315
 20
-455.8944185778
 30
0.0
 11
-443.2583087056
 21
-456.7356992092
 31
0.0
  0
LINE
  5
75B
330
671
100
AcDbEntity
  8
0
  6
CONTINUOUS
 62
     7
100
AcDbLine
 10
-442.8160996448
 20
-456.4272985062
 30
0.0
 11
-442.8160996448
 21
-441.2826916147
 31
0.0
  0
LINE
  5
75C
330
671
100
AcDbEntity
  8
0
  6
CONTINUOUS
 62
     7
100
AcDbLine
 10
-442.4273444265
 20
-440.9629060062
 30
0.0
 11
-440.6623957353
 21
-441.2265867302
 31
0.0
  0
LINE
  5
75D
330
671
100
AcDbEntity
  8
0
  6
CONTINUOUS
 62
     7
100
AcDbLine
 10
-440.1628452797
 20
-441.787319028
 30
0.0
 11
-440.1628452797
 21
-457.1483961902
 31
0.0
  0
LINE
  5
75E
330
671
100
AcDbEntity
  8
0
  6
CONTINUOUS
 62
     7
100
AcDbLine
 10
-439.7206362189
 20
-457.6971627879
 30
0.0
 11
-436.625172793
 21
-458.5384434193
 31
0.0
  0
LINE
  5
75F
330
671
100
AcDbEntity
  8
0
  6
CONTINUOUS
 62
     7
100
AcDbLine
 10
-436.1829637322
 20
-458.2300427163
 30
0.0
 11
-436.1829637322
 21
-442.1937883814
 31
0.0
  0
LINE
  5
760
330
671
100
AcDbEntity
  8
0
  6
CONTINUOUS
 62
     7
100
AcDbLine
 10
-435.8087868346
 20
-441.8720003623
 30
0.0
 11
-434.0438381434
 21
-442.0775356903
 31
0.0
  0
LINE
  5
761
330
671
100
AcDbEntity
  8
0
  6
CONTINUOUS
 62
     7
100
AcDbLine
 10
-433.5297093672
 20
-442.640142325
 30
0.0
 11
-433.5297093672
 21
-458.9511404004
 31
0.0
  0
LINE
  5
762
330
671
100
AcDbEntity
  8
0
  6
CONTINUOUS
 62
     7
100
AcDbLine
 10
-433.0875003063
 20
-459.499906998
 30
0.0
 11
-429.9920368804
 21
-460.3411876294
 31
0.0
  0
LINE
  5
763
330
671
100
AcDbEntity
  8
0
  6
CONTINUOUS
 62
     7
100
AcDbLine
 10
-429.5498278196
 20
-460.0327869264
 30
0.0
 11
-429.5498278196
 21
-442.8851262633
 31
0.0
  0
LINE
  5
764
330
671
100
AcDbEntity
  8
0
  6
CONTINUOUS
 62
     7
100
AcDbLine
 10
-429.1902292427
 20
-442.5618188203
 30
0.0
 11
-427.4252805515
 21
-442.7082669919
 31
0.0
  0
LINE
  5
765
330
671
100
AcDbEntity
  8
0
  6
CONTINUOUS
 62
     7
100
AcDbLine
 10
-426.8965734546
 20
-443.2722629026
 30
0.0
 11
-426.8965734546
 21
-465.8968884147
 31
0.0
  0
LINE
  5
766
330
671
100
AcDbEntity
  8
0
  6
CONTINUOUS
 62
     7
100
AcDbLine
 10
-427.3387825154
 20
-466.2052891177
 30
0.0
 11
-506.0519953447
 21
-444.8127244908
 31
0.0
  0
LINE
  5
767
330
671
100
AcDbEntity
  8
0
  6
CONTINUOUS
 62
     7
100
AcDbLine
 10
-506.4942044055
 20
-444.2639578931
 30
0.0
 11
-506.4942044055
 21
-421.6393323811
 31
0.0
  0
LINE
  5
768
330
671
100
AcDbEntity
  8
0
  6
CONTINUOUS
 62
     7
100
AcDbLine
 10
-426.8965734546
 20
-443.2722629026
 30
0.0
 11
39.7988154755
 21
12.2367439016
 31
0.0
  0
LINE
  5
769
330
671
100
AcDbEntity
  8
0
  6
CONTINUOUS
 62
     7
100
AcDbLine
 10
-427.4252805515
 20
-442.7082669919
 30
0.0
 11
39.2701083786
 21
12.8007398123
 31
0.0
  0
LINE
  5
76A
330
671
100
AcDbEntity
  8
0
  6
CONTINUOUS
 62
     7
100
AcDbLine
 10
-429.1902292427
 20
-442.5618188203
 30
0.0
 11
37.5051596874
 21
12.9471879839
 31
0.0
  0
LINE
  5
76B
330
671
100
AcDbEntity
  8
0
  6
CONTINUOUS
 62
     7
100
AcDbLine
 10
37.5051596874
 20
12.9471879839
 30
0.0
 11
39.2701083786
 21
12.8007398123
 31
0.0
  0
LINE
  5
76C
330
671
100
AcDbEntity
  8
0
  6
CONTINUOUS
 62
     7
100
AcDbLine
 10
-426.8965734546
 20
-465.8968884147
 30
0.0
 11
39.7988154755
 21
-10.3878816104
 31
0.0
  0
LINE
  5
76D
330
671
100
AcDbEntity
  8
0
  6
CONTINUOUS
 62
     7
100
AcDbLine
 10
39.7988154755
 20
12.2367439016
 30
0.0
 11
39.7988154755
 21
-10.3878816104
 31
0.0
  0
LINE
  5
76E
330
671
100
AcDbEntity
  8
0
  6
CONTINUOUS
 62
     7
100
AcDbLine
 10
-433.5297093672
 20
-442.640142325
 30
0.0
 11
33.1656795629
 21
12.8688644793
 31
0.0
  0
LINE
  5
76F
330
671
100
AcDbEntity
  8
0
  6
CONTINUOUS
 62
     7
100
AcDbLine
 10
-434.0438381434
 20
-442.0775356903
 30
0.0
 11
32.6515507867
 21
13.431471114
 31
0.0
  0
LINE
  5
770
330
671
100
AcDbEntity
  8
0
  6
CONTINUOUS
 62
     7
100
AcDbLine
 10
-435.8087868346
 20
-441.8720003623
 30
0.0
 11
30.8866020955
 21
13.6370064419
 31
0.0
  0
LINE
  5
771
330
671
100
AcDbEntity
  8
0
  6
CONTINUOUS
 62
     7
100
AcDbLine
 10
30.8866020955
 20
13.6370064419
 30
0.0
 11
32.6515507867
 21
13.431471114
 31
0.0
  0
LINE
  5
772
330
671
100
AcDbEntity
  8
0
  6
CONTINUOUS
 62
     7
100
AcDbLine
 10
33.1656795629
 20
12.8688644793
 30
0.0
 11
33.1656795629
 21
8.8862853287
 31
0.0
  0
LINE
  5
773
330
671
100
AcDbEntity
  8
0
  6
CONTINUOUS
 62
     7
100
AcDbLine
 10
-440.1628452797
 20
-441.787319028
 30
0.0
 11
26.5325436503
 21
13.7216877763
 31
0.0
  0
LINE
  5
774
330
671
100
AcDbEntity
  8
0
  6
CONTINUOUS
 62
     7
100
AcDbLine
 10
-440.6623957353
 20
-441.2265867302
 30
0.0
 11
26.0329931948
 21
14.2824200741
 31
0.0
  0
LINE
  5
775
330
671
100
AcDbEntity
  8
0
  6
CONTINUOUS
 62
     7
100
AcDbLine
 10
-442.4273444265
 20
-440.9629060062
 30
0.0
 11
24.2680445036
 21
14.5461007981
 31
0.0
  0
LINE
  5
776
330
671
100
AcDbEntity
  8
0
  6
CONTINUOUS
 62
     7
100
AcDbLine
 10
24.2680445036
 20
14.5461007981
 30
0.0
 11
26.0329931948
 21
14.2824200741
 31
0.0
  0
LINE
  5
777
330
671
100
AcDbEntity
  8
0
  6
CONTINUOUS
 62
     7
100
AcDbLine
 10
26.5325436503
 20
13.7216877763
 30
0.0
 11
26.5325436503
 21
9.5776232106
 31
0.0
  0
LINE
  5
778
330
671
100
AcDbEntity
  8
0
  6
CONTINUOUS
 62
     7
100
AcDbLine
 10
-446.7959811923
 20
-440.7170335206
 30
0.0
 11
19.8994077377
 21
14.7919732837
 31
0.0
  0
LINE
  5
779
330
671
100
AcDbEntity
  8
0
  6
CONTINUOUS
 62
     7
100
AcDbLine
 10
-447.2809533272
 20
-440.1586534986
 30
0.0
 11
19.4144356029
 21
15.3503533057
 31
0.0
  0
LINE
  5
77A
330
671
100
AcDbEntity
  8
0
  6
CONTINUOUS
 62
     7
100
AcDbLine
 10
-449.0459020183
 20
-439.8375553312
 30
0.0
 11
17.6494869117
 21
15.6714514731
 31
0.0
  0
LINE
  5
77B
330
671
100
AcDbEntity
  8
0
  6
CONTINUOUS
 62
     7
100
AcDbLine
 10
17.6494869117
 20
15.6714514731
 30
0.0
 11
19.4144356029
 21
15.3503533057
 31
0.0
  0
LINE
  5
77C
330
671
100
AcDbEntity
  8
0
  6
CONTINUOUS
 62
     7
100
AcDbLine
 10
19.8994077377
 20
14.7919732837
 30
0.0
 11
19.8994077377
 21
10.4887199773
 31
0.0
  0
LINE
  5
77D
330
671
100
AcDbEntity
  8
0
  6
CONTINUOUS
 62
     7
100
AcDbLine
 10
-453.4291171049
 20
-439.4317412345
 30
0.0
 11
13.2662718252
 21
16.0772655698
 31
0.0
  0
LINE
  5
77E
330
671
100
AcDbEntity
  8
0
  6
CONTINUOUS
 62
     7
100
AcDbLine
 10
-453.8995109191
 20
-438.8761860308
 30
0.0
 11
12.795878011
 21
16.6328207735
 31
0.0
  0
LINE
  5
77F
330
671
100
AcDbEntity
  8
0
  6
CONTINUOUS
 62
     7
100
AcDbLine
 10
-455.6644596102
 20
-438.4981971387
 30
0.0
 11
11.0309293198
 21
17.0108096655
 31
0.0
  0
LINE
  5
780
330
671
100
AcDbEntity
  8
0
  6
CONTINUOUS
 62
     7
100
AcDbLine
 10
11.0309293198
 20
17.0108096655
 30
0.0
 11
12.795878011
 21
16.6328207735
 31
0.0
  0
LINE
  5
781
330
671
100
AcDbEntity
  8
0
  6
CONTINUOUS
 62
     7
100
AcDbLine
 10
13.2662718252
 20
16.0772655698
 30
0.0
 11
13.2662718252
 21
11.6165493982
 31
0.0
  0
LINE
  5
782
330
671
100
AcDbEntity
  8
0
  6
CONTINUOUS
 62
     7
100
AcDbLine
 10
-476.8661973294
 20
-447.6017952112
 30
0.0
 11
-10.1708083993
 21
7.9072115931
 31
0.0
  0
LINE
  5
783
330
671
100
AcDbEntity
  8
0
  6
CONTINUOUS
 62
     7
100
AcDbLine
 10
-10.1708083993
 20
7.9072115931
 30
0.0
 11
-1.0752524381
 21
5.435234377
 31
0.0
  0
LINE
  5
784
330
671
100
AcDbEntity
  8
0
  6
CONTINUOUS
 62
     7
100
AcDbLine
 10
-477.3084063902
 20
-433.0437724007
 30
0.0
 11
-10.6130174601
 21
22.4652344036
 31
0.0
  0
LINE
  5
785
330
671
100
AcDbEntity
  8
0
  6
CONTINUOUS
 62
     7
100
AcDbLine
 10
-477.7263182499
 20
-432.5022566889
 30
0.0
 11
-11.0309293198
 21
23.0067501154
 31
0.0
  0
LINE
  5
786
330
671
100
AcDbEntity
  8
0
  6
CONTINUOUS
 62
     7
100
AcDbLine
 10
-479.4912669411
 20
-431.920895109
 30
0.0
 11
-12.795878011
 21
23.5881116953
 31
0.0
  0
LINE
  5
787
330
671
100
AcDbEntity
  8
0
  6
CONTINUOUS
 62
     7
100
AcDbLine
 10
-12.795878011
 20
23.5881116953
 30
0.0
 11
-11.0309293198
 21
23.0067501154
 31
0.0
  0
LINE
  5
788
330
671
100
AcDbEntity
  8
0
  6
CONTINUOUS
 62
     7
100
AcDbLine
 10
-477.3084063902
 20
-447.0530286135
 30
0.0
 11
-10.6130174601
 21
8.4559781908
 31
0.0
  0
LINE
  5
789
330
671
100
AcDbEntity
  8
0
  6
CONTINUOUS
 62
     7
100
AcDbLine
 10
-10.6130174601
 20
22.4652344036
 30
0.0
 11
-10.6130174601
 21
8.4559781908
 31
0.0
  0
LINE
  5
78A
330
671
100
AcDbEntity
  8
0
  6
CONTINUOUS
 62
     7
100
AcDbLine
 10
-483.9415423028
 20
-430.7805923011
 30
0.0
 11
-17.2461533727
 21
24.7284145032
 31
0.0
  0
LINE
  5
78B
330
671
100
AcDbEntity
  8
0
  6
CONTINUOUS
 62
     7
100
AcDbLine
 10
-484.3448758418
 20
-430.2440506115
 30
0.0
 11
-17.6494869117
 21
25.2649561928
 31
0.0
  0
LINE
  5
78C
330
671
100
AcDbEntity
  8
0
  6
CONTINUOUS
 62
     7
100
AcDbLine
 10
-486.109824533
 20
-429.605798307
 30
0.0
 11
-19.4144356029
 21
25.9032084973
 31
0.0
  0
LINE
  5
78D
330
671
100
AcDbEntity
  8
0
  6
CONTINUOUS
 62
     7
100
AcDbLine
 10
-19.4144356029
 20
25.9032084973
 30
0.0
 11
-17.6494869117
 21
25.2649561928
 31
0.0
  0
LINE
  5
78E
330
671
100
AcDbEntity
  8
0
  6
CONTINUOUS
 62
     7
100
AcDbLine
 10
-17.2461533727
 20
24.7284145032
 30
0.0
 11
-17.2461533727
 21
19.550647198
 31
0.0
  0
LINE
  5
78F
330
671
100
AcDbEntity
  8
0
  6
CONTINUOUS
 62
     7
100
AcDbLine
 10
-490.5746782154
 20
-428.3029333018
 30
0.0
 11
-23.8792892853
 21
27.2060735025
 31
0.0
  0
LINE
  5
790
330
671
100
AcDbEntity
  8
0
  6
CONTINUOUS
 62
     7
100
AcDbLine
 10
-490.9634334337
 20
-427.7718370166
 30
0.0
 11
-24.2680445036
 21
27.7371697877
 31
0.0
  0
LINE
  5
791
330
671
100
AcDbEntity
  8
0
  6
CONTINUOUS
 62
     7
100
AcDbLine
 10
-492.7283821248
 20
-427.0761672686
 30
0.0
 11
-26.0329931948
 21
28.4328395357
 31
0.0
  0
LINE
  5
792
330
671
100
AcDbEntity
  8
0
  6
CONTINUOUS
 62
     7
100
AcDbLine
 10
-26.0329931948
 20
28.4328395357
 30
0.0
 11
-24.2680445036
 21
27.7371697877
 31
0.0
  0
LINE
  5
793
330
671
100
AcDbEntity
  8
0
  6
CONTINUOUS
 62
     7
100
AcDbLine
 10
-23.8792892853
 20
27.2060735025
 30
0.0
 11
-23.8792892853
 21
21.8708433322
 31
0.0
  0
LINE
  5
794
330
671
100
AcDbEntity
  8
0
  6
CONTINUOUS
 62
     7
100
AcDbLine
 10
-497.2078141279
 20
-425.6085416482
 30
0.0
 11
-30.5124251979
 21
29.9004651561
 31
0.0
  0
LINE
  5
795
330
671
100
AcDbEntity
  8
0
  6
CONTINUOUS
 62
     7
100
AcDbLine
 10
-497.5819910256
 20
-425.0833671029
 30
0.0
 11
-30.8866020955
 21
30.4256397014
 31
0.0
  0
LINE
  5
796
330
671
100
AcDbEntity
  8
0
  6
CONTINUOUS
 62
     7
100
AcDbLine
 10
-499.3469397167
 20
-424.3295519588
 30
0.0
 11
-32.6515507867
 21
31.1794548454
 31
0.0
  0
LINE
  5
797
330
671
100
AcDbEntity
  8
0
  6
CONTINUOUS
 62
     7
100
AcDbLine
 10
-32.6515507867
 20
31.1794548454
 30
0.0
 11
-30.8866020955
 21
30.4256397014
 31
0.0
  0
LINE
  5
798
330
671
100
AcDbEntity
  8
0
  6
CONTINUOUS
 62
     7
100
AcDbLine
 10
-30.5124251979
 20
29.9004651561
 30
0.0
 11
-30.5124251979
 21
24.4060462451
 31
0.0
  0
LINE
  5
799
330
671
100
AcDbEntity
  8
0
  6
CONTINUOUS
 62
     7
100
AcDbLine
 10
-504.2005486175
 20
-422.175621291
 30
0.0
 11
-37.5051596874
 21
33.3333855133
 31
0.0
  0
LINE
  5
79A
330
671
100
AcDbEntity
  8
0
  6
CONTINUOUS
 62
     7
100
AcDbLine
 10
-505.9654973086
 20
-421.3627189906
 30
0.0
 11
-39.2701083786
 21
34.1462878136
 31
0.0
  0
LINE
  5
79B
330
671
100
AcDbEntity
  8
0
  6
CONTINUOUS
 62
     7
100
AcDbLine
 10
-39.2701083786
 20
34.1462878136
 30
0.0
 11
-37.5051596874
 21
33.3333855133
 31
0.0
  0
LINE
  5
79C
330
671
100
AcDbEntity
  8
0
  6
CONTINUOUS
 62
     7
100
AcDbLine
 10
-503.8409500405
 20
-422.6943911098
 30
0.0
 11
-37.1455611105
 21
32.8146156944
 31
0.0
  0
LINE
  5
79D
330
671
100
AcDbEntity
  8
0
  6
CONTINUOUS
 62
     7
100
AcDbLine
 10
-37.1455611105
 20
32.8146156944
 30
0.0
 11
-37.1455611105
 21
27.1587113683
 31
0.0
  0
LINE
  5
79E
330
671
100
AcDbEntity
  8
0
  6
CONTINUOUS
 62
     8
100
AcDbLine
 10
-433.5297093672
 20
-458.9511404004
 30
0.0
 11
-429.5498278196
 21
-455.066654001
 31
0.0
  0
LINE
  5
79F
330
671
100
AcDbEntity
  8
0
  6
CONTINUOUS
 62
     8
100
AcDbLine
 10
-440.1628452797
 20
-457.1483961902
 30
0.0
 11
-436.1829637322
 21
-453.2639097909
 31
0.0
  0
LINE
  5
7A0
330
671
100
AcDbEntity
  8
0
  6
CONTINUOUS
 62
     8
100
AcDbLine
 10
-446.7959811923
 20
-455.3456519801
 30
0.0
 11
-442.8160996448
 21
-451.4611655808
 31
0.0
  0
LINE
  5
7A1
330
671
100
AcDbEntity
  8
0
  6
CONTINUOUS
 62
     8
100
AcDbLine
 10
-429.9920368804
 20
-460.3411876294
 30
0.0
 11
-429.5498278196
 21
-459.9095780295
 31
0.0
  0
LINE
  5
7A2
330
671
100
AcDbEntity
  8
0
  6
CONTINUOUS
 62
     8
100
AcDbLine
 10
-433.0875003063
 20
-459.499906998
 30
0.0
 11
-429.5498278196
 21
-456.0470301987
 31
0.0
  0
LINE
  5
7A3
330
671
100
AcDbEntity
  8
0
  6
CONTINUOUS
 62
     8
100
AcDbLine
 10
-453.4291171049
 20
-453.54290777
 30
0.0
 11
-449.4492355574
 21
-449.6584213707
 31
0.0
  0
LINE
  5
7A4
330
671
100
AcDbEntity
  8
0
  6
CONTINUOUS
 62
     8
100
AcDbLine
 10
-436.625172793
 20
-458.5384434193
 30
0.0
 11
-436.1829637322
 21
-458.1068338194
 31
0.0
  0
LINE
  5
7A5
330
671
100
AcDbEntity
  8
0
  6
CONTINUOUS
 62
     8
100
AcDbLine
 10
-439.7206362189
 20
-457.6971627879
 30
0.0
 11
-436.1829637322
 21
-454.2442859885
 31
0.0
  0
LINE
  5
7A6
330
671
100
AcDbEntity
  8
0
  6
CONTINUOUS
 62
     8
100
AcDbLine
 10
-443.2583087056
 20
-456.7356992092
 30
0.0
 11
-442.8160996448
 21
-456.3040896093
 31
0.0
  0
LINE
  5
7A7
330
671
100
AcDbEntity
  8
0
  6
CONTINUOUS
 62
     8
100
AcDbLine
 10
-446.3537721315
 20
-455.8944185778
 30
0.0
 11
-442.8160996448
 21
-452.4415417784
 31
0.0
  0
LINE
  5
7A8
330
671
100
AcDbEntity
  8
0
  6
CONTINUOUS
 62
     8
100
AcDbLine
 10
-449.8914446182
 20
-454.9329549991
 30
0.0
 11
-449.4492355574
 21
-454.5013453991
 31
0.0
  0
LINE
  5
7A9
330
671
100
AcDbEntity
  8
0
  6
CONTINUOUS
 62
     8
100
AcDbLine
 10
-452.9869080441
 20
-454.0916743677
 30
0.0
 11
-449.4492355574
 21
-450.6387975683
 31
0.0
  0
LINE
  5
7AA
330
671
100
AcDbEntity
  8
0
  6
CONTINUOUS
 62
     8
100
AcDbLine
 10
-456.5245805308
 20
-453.1302107889
 30
0.0
 11
-456.0823714699
 21
-452.698601189
 31
0.0
  0
LINE
  5
7AB
330
671
100
AcDbEntity
  8
0
  6
CONTINUOUS
 62
     8
100
AcDbLine
 10
-483.9415423028
 20
-445.2502844034
 30
0.0
 11
-479.9616607552
 21
-441.3657980041
 31
0.0
  0
LINE
  5
7AC
330
671
100
AcDbEntity
  8
0
  6
CONTINUOUS
 62
     8
100
AcDbLine
 10
-490.5746782154
 20
-443.4475401932
 30
0.0
 11
-486.5947966678
 21
-439.5630537939
 31
0.0
  0
LINE
  5
7AD
330
671
100
AcDbEntity
  8
0
  6
CONTINUOUS
 62
     8
100
AcDbLine
 10
-497.2078141279
 20
-441.6447959831
 30
0.0
 11
-493.2279325804
 21
-437.7603095838
 31
0.0
  0
LINE
  5
7AE
330
671
100
AcDbEntity
  8
0
  6
CONTINUOUS
 62
     8
100
AcDbLine
 10
-480.4038698161
 20
-446.6403316325
 30
0.0
 11
-479.9616607552
 21
-446.2087220325
 31
0.0
  0
LINE
  5
7AF
330
671
100
AcDbEntity
  8
0
  6
CONTINUOUS
 62
     8
100
AcDbLine
 10
-483.4993332419
 20
-445.7990510011
 30
0.0
 11
-479.9616607552
 21
-442.3461742017
 31
0.0
  0
LINE
  5
7B0
330
671
100
AcDbEntity
  8
0
  6
CONTINUOUS
 62
     8
100
AcDbLine
 10
-503.8409500405
 20
-439.842051773
 30
0.0
 11
-499.861068493
 21
-435.9575653737
 31
0.0
  0
LINE
  5
7B1
330
671
100
AcDbEntity
  8
0
  6
CONTINUOUS
 62
     8
100
AcDbLine
 10
-487.0370057286
 20
-444.8375874223
 30
0.0
 11
-486.5947966678
 21
-444.4059778224
 31
0.0
  0
LINE
  5
7B2
330
671
100
AcDbEntity
  8
0
  6
CONTINUOUS
 62
     8
100
AcDbLine
 10
-490.1324691545
 20
-443.9963067909
 30
0.0
 11
-486.5947966678
 21
-440.5434299915
 31
0.0
  0
LINE
  5
7B3
330
671
100
AcDbEntity
  8
0
  6
CONTINUOUS
 62
     8
100
AcDbLine
 10
-493.6701416412
 20
-443.0348432122
 30
0.0
 11
-493.2279325804
 21
-442.6032336123
 31
0.0
  0
LINE
  5
7B4
330
671
100
AcDbEntity
  8
0
  6
CONTINUOUS
 62
     8
100
AcDbLine
 10
-496.7656050671
 20
-442.1935625808
 30
0.0
 11
-493.2279325804
 21
-438.7406857814
 31
0.0
  0
LINE
  5
7B5
330
671
100
AcDbEntity
  8
0
  6
CONTINUOUS
 62
     8
100
AcDbLine
 10
-500.3032775538
 20
-441.2320990021
 30
0.0
 11
-499.861068493
 21
-440.8004894021
 31
0.0
  0
LINE
  5
7B6
330
671
100
AcDbEntity
  8
0
  6
CONTINUOUS
 62
     8
100
AcDbLine
 10
-503.3987409797
 20
-440.3908183707
 30
0.0
 11
-499.861068493
 21
-436.9379415713
 31
0.0
  0
ARC
  5
7B7
330
671
100
AcDbEntity
  8
0
  6
CONTINUOUS
 62
     7
100
AcDbCircle
 10
-506.1543780991
 20
-421.6452811129
 30
0.0
 40
0.3398783693583732
100
AcDbArc
 50
56.2389525371
 51
178.9971276147
  0
ARC
  5
7B8
330
671
100
AcDbEntity
  8
0
  6
CONTINUOUS
 62
     7
100
AcDbCircle
 10
-504.445460052
 20
-422.7294053078
 30
0.0
 40
0.6055232018928144
100
AcDbArc
 50
3.314960429
 51
66.1425503168
  0
ARC
  5
7B9
330
671
100
AcDbEntity
  8
0
  6
CONTINUOUS
 62
     7
100
AcDbCircle
 10
-503.2347639431
 20
-439.8061272674
 30
0.0
 40
0.6072496643083366
100
AcDbArc
 50
183.391562315
 51
254.3338098233
  0
ARC
  5
7BA
330
671
100
AcDbEntity
  8
0
  6
CONTINUOUS
 62
     7
100
AcDbCircle
 10
-500.1860651269
 20
-440.9289300228
 30
0.0
 40
0.3250387407722938
100
AcDbArc
 50
248.862298024
 51
0.9222550965
  0
ARC
  5
7BB
330
671
100
AcDbEntity
  8
0
  6
CONTINUOUS
 62
     7
100
AcDbCircle
 10
-499.5239737341
 20
-424.616441891
 30
0.0
 40
0.3371155239863863
100
AcDbArc
 50
58.3220976494
 51
179.3640573187
  0
ARC
  5
7BC
330
671
100
AcDbEntity
  8
0
  6
CONTINUOUS
 62
     7
100
AcDbCircle
 10
-497.81316926
 20
-425.6439614502
 30
0.0
 40
0.6063904669055918
100
AcDbArc
 50
3.3486030064
 51
67.5896989911
  0
ARC
  5
7BD
330
671
100
AcDbEntity
  8
0
  6
CONTINUOUS
 62
     7
100
AcDbCircle
 10
-496.6016280305
 20
-441.6088714775
 30
0.0
 40
0.6072496643081697
100
AcDbArc
 50
183.391562315
 51
254.3338098233
  0
ARC
  5
7BE
330
671
100
AcDbEntity
  8
0
  6
CONTINUOUS
 62
     7
100
AcDbCircle
 10
-493.5529292143
 20
-442.7316742329
 30
0.0
 40
0.3250387407723506
100
AcDbArc
 50
248.862298024
 51
0.9222550965
  0
ARC
  5
7BF
330
671
100
AcDbEntity
  8
0
  6
CONTINUOUS
 62
     7
100
AcDbCircle
 10
-492.8934802145
 20
-427.3670345788
 30
0.0
 40
0.3344565313643419
100
AcDbArc
 50
60.4204870266
 51
179.7140425352
  0
ARC
  5
7C0
330
671
100
AcDbEntity
  8
0
  6
CONTINUOUS
 62
     7
100
AcDbCircle
 10
-491.1806376502
 20
-428.3386574274
 30
0.0
 40
0.6070115730406638
100
AcDbArc
 50
3.3739472847
 51
69.0332878667
  0
ARC
  5
7C1
330
671
100
AcDbEntity
  8
0
  6
CONTINUOUS
 62
     7
100
AcDbCircle
 10
-489.9684921179
 20
-443.4116156876
 30
0.0
 40
0.6072496643083651
100
AcDbArc
 50
183.391562315
 51
254.3338098233
  0
ARC
  5
7C2
330
671
100
AcDbEntity
  8
0
  6
CONTINUOUS
 62
     7
100
AcDbCircle
 10
-486.9197933017
 20
-444.5344184431
 30
0.0
 40
0.3250387407722947
100
AcDbArc
 50
248.862298024
 51
0.9222550965
  0
ARC
  5
7C3
330
671
100
AcDbEntity
  8
0
  6
CONTINUOUS
 62
     7
100
AcDbCircle
 10
-486.2628939465
 20
-429.9002966005
 30
0.0
 40
0.3319028325201218
100
AcDbArc
 50
62.5362433943
 51
180.0468960566
  0
ARC
  5
7C4
330
671
100
AcDbEntity
  8
0
  6
CONTINUOUS
 62
     7
100
AcDbCircle
 10
-484.5478700541
 20
-430.8165165432
 30
0.0
 40
0.6073910545836219
100
AcDbArc
 50
3.3907469941
 51
70.4756897517
  0
ARC
  5
7C5
330
671
100
AcDbEntity
  8
0
  6
CONTINUOUS
 62
     7
100
AcDbCircle
 10
-483.3353562054
 20
-445.2143598978
 30
0.0
 40
0.6072496643083651
100
AcDbArc
 50
183.3915623151
 51
254.3338098233
  0
ARC
  5
7C6
330
671
100
AcDbEntity
  8
0
  6
CONTINUOUS
 62
     7
100
AcDbCircle
 10
-480.2866573892
 20
-446.3371626532
 30
0.0
 40
0.3250387407722847
100
AcDbArc
 50
248.862298024
 51
0.9222550965
  0
ARC
  5
7C7
330
671
100
AcDbEntity
  8
0
  6
CONTINUOUS
 62
     7
100
AcDbCircle
 10
-479.6322110792
 20
-432.2186805707
 30
0.0
 40
0.3294562661734532
100
AcDbArc
 50
64.6714479338
 51
180.362400371
  0
ARC
  5
7C8
330
671
100
AcDbEntity
  8
0
  6
CONTINUOUS
 62
     7
100
AcDbCircle
 10
-477.9148706508
 20
-433.079789477
 30
0.0
 40
0.6075328214983396
100
AcDbArc
 50
3.3987253231
 51
71.9192202835
  0
ARC
  5
7C9
330
671
100
AcDbEntity
  8
0
  6
CONTINUOUS
 62
     7
100
AcDbCircle
 10
-476.7022202928
 20
-447.0171041079
 30
0.0
 40
0.6072496643083651
100
AcDbArc
 50
183.391562315
 51
254.3338098233
  0
ARC
  5
7CA
330
671
100
AcDbEntity
  8
0
  6
CONTINUOUS
 62
     7
100
AcDbCircle
 10
-456.4073681039
 20
-452.8270418097
 30
0.0
 40
0.3250387407721992
100
AcDbArc
 50
248.862298024
 51
0.9222550965
  0
ARC
  5
7CB
330
671
100
AcDbEntity
  8
0
  6
CONTINUOUS
 62
     7
100
AcDbCircle
 10
-455.7608860455
 20
-438.8049743699
 30
0.0
 40
0.3215747610784858
100
AcDbArc
 50
72.5509870438
 51
181.3505841272
  0
ARC
  5
7CC
330
671
100
AcDbEntity
  8
0
  6
CONTINUOUS
 62
     7
100
AcDbCircle
 10
-454.0342030446
 20
-439.4671521541
 30
0.0
 40
0.6061212152616644
100
AcDbArc
 50
3.3492511421
 51
77.1605548803
  0
ARC
  5
7CD
330
671
100
AcDbEntity
  8
0
  6
CONTINUOUS
 62
     7
100
AcDbCircle
 10
-452.8229310075
 20
-453.5069832644
 30
0.0
 40
0.6072496643080695
100
AcDbArc
 50
183.391562315
 51
254.3338098234
  0
ARC
  5
7CE
330
671
100
AcDbEntity
  8
0
  6
CONTINUOUS
 62
     7
100
AcDbCircle
 10
-449.7742321913
 20
-454.6297860198
 30
0.0
 40
0.3250387407721829
100
AcDbArc
 50
248.8622980239
 51
0.9222550965
  0
ARC
  5
7CF
330
671
100
AcDbEntity
  8
0
  6
CONTINUOUS
 62
     7
100
AcDbCircle
 10
-449.1297007622
 20
-440.1460325878
 30
0.0
 40
0.31965676479364
100
AcDbArc
 50
74.80219186
 51
181.582833744
  0
ARC
  5
7D0
330
671
100
AcDbEntity
  8
0
  6
CONTINUOUS
 62
     7
100
AcDbCircle
 10
-447.4001748156
 20
-440.7519988852
 30
0.0
 40
0.6052045200716861
100
AcDbArc
 50
3.312077056
 51
78.638785374
  0
ARC
  5
7D1
330
671
100
AcDbEntity
  8
0
  6
CONTINUOUS
 62
     7
100
AcDbCircle
 10
-446.1897950949
 20
-455.3097274745
 30
0.0
 40
0.6072496643085207
100
AcDbArc
 50
183.391562315
 51
254.3338098233
  0
ARC
  5
7D2
330
671
100
AcDbEntity
  8
0
  6
CONTINUOUS
 62
     7
100
AcDbCircle
 10
-443.1410962787
 20
-456.4325302299
 30
0.0
 40
0.3250387407723908
100
AcDbArc
 50
248.862298024
 51
0.9222550965
  0
ARC
  5
7D3
330
671
100
AcDbEntity
  8
0
  6
CONTINUOUS
 62
     7
100
AcDbCircle
 10
-442.498391444
 20
-441.2727286691
 30
0.0
 40
0.3178643753927394
100
AcDbArc
 50
77.0845108845
 51
181.7961378771
  0
ARC
  5
7D4
330
671
100
AcDbEntity
  8
0
  6
CONTINUOUS
 62
     7
100
AcDbCircle
 10
-440.7659278023
 20
-441.8217105999
 30
0.0
 40
0.6040623388899636
100
AcDbArc
 50
3.2638320562
 51
80.1311780846
  0
ARC
  5
7D5
330
671
100
AcDbEntity
  8
0
  6
CONTINUOUS
 62
     7
100
AcDbCircle
 10
-439.5566591823
 20
-457.1124716846
 30
0.0
 40
0.6072496643081664
100
AcDbArc
 50
183.391562315
 51
254.3338098233
  0
ARC
  5
7D6
330
671
100
AcDbEntity
  8
0
  6
CONTINUOUS
 62
     7
100
AcDbCircle
 10
-436.5079603661
 20
-458.2352744401
 30
0.0
 40
0.3250387407722607
100
AcDbArc
 50
248.8622980239
 51
0.9222550965
  0
ARC
  5
7D7
330
671
100
AcDbEntity
  8
0
  6
CONTINUOUS
 62
     7
100
AcDbCircle
 10
-435.8669518494
 20
-442.1828072577
 30
0.0
 40
0.3162026172737835
100
AcDbArc
 50
79.4001629095
 51
181.9901751001
  0
ARC
  5
7D8
330
671
100
AcDbEntity
  8
0
  6
CONTINUOUS
 62
     7
100
AcDbCircle
 10
-434.1314626125
 20
-442.6738272239
 30
0.0
 40
0.6026953132685311
100
AcDbArc
 50
3.2039551623
 51
81.6402708932
  0
ARC
  5
7D9
330
671
100
AcDbEntity
  8
0
  6
CONTINUOUS
 62
     7
100
AcDbCircle
 10
-432.9235232697
 20
-458.9152158947
 30
0.0
 40
0.607249664308163
100
AcDbArc
 50
183.391562315
 51
254.3338098233
  0
ARC
  5
7DA
330
671
100
AcDbEntity
  8
0
  6
CONTINUOUS
 62
     7
100
AcDbCircle
 10
-429.8748244535
 20
-460.0380186502
 30
0.0
 40
0.3250387407722522
100
AcDbArc
 50
248.862298024
 51
0.9222550965
  0
ARC
  5
7DB
330
671
100
AcDbEntity
  8
0
  6
CONTINUOUS
 62
     7
100
AcDbCircle
 10
-429.2353752034
 20
-442.8732406529
 30
0.0
 40
0.3146771608367536
100
AcDbArc
 50
81.7514516359
 51
182.1646227448
  0
ARC
  5
7DC
330
671
100
AcDbEntity
  8
0
  6
CONTINUOUS
 62
     7
100
AcDbCircle
 10
-427.4967793285
 20
-443.3051032371
 30
0.0
 40
0.6011036338527395
100
AcDbArc
 50
3.1318224634
 51
83.1687320416
  0
ARC
  5
7DD
330
671
100
AcDbEntity
  8
0
  6
CONTINUOUS
 62
     7
100
AcDbCircle
 10
-427.2215700885
 20
-465.9021201385
 30
0.0
 40
0.3250387407722388
100
AcDbArc
 50
248.862298024
 51
0.9222550965
  0
ARC
  5
7DE
330
671
100
AcDbEntity
  8
0
  6
CONTINUOUS
 62
     7
100
AcDbCircle
 10
-505.8880183081
 20
-444.2280333875
 30
0.0
 40
0.6072496643085207
100
AcDbArc
 50
183.391562315
 51
254.3338098233
  0
ARC
  5
7DF
330
671
100
AcDbEntity
  8
0
  6
CONTINUOUS
 62
     7
100
AcDbCircle
 10
39.1986096016
 20
12.2039035672
 30
0.0
 40
0.6011036338529201
100
AcDbArc
 50
3.1318224635
 51
83.1687320415
  0
ARC
  5
7E0
330
671
100
AcDbEntity
  8
0
  6
CONTINUOUS
 62
     7
100
AcDbCircle
 10
37.4626098015
 20
12.6218823357
 30
0.0
 40
0.3280766031906804
100
AcDbArc
 50
82.5480337114
 51
133.079092099
  0
ARC
  5
7E1
330
671
100
AcDbEntity
  8
0
  6
CONTINUOUS
 62
     7
100
AcDbCircle
 10
32.5639263176
 20
12.8351795804
 30
0.0
 40
0.6026953132686818
100
AcDbArc
 50
3.2039551623
 51
81.6402708931
  0
ARC
  5
7E2
330
671
100
AcDbEntity
  8
0
  6
CONTINUOUS
 62
     7
100
AcDbCircle
 10
30.8314266228
 20
13.3094691096
 30
0.0
 40
0.3321521291068708
100
AcDbArc
 50
80.437982991
 51
132.8831790697
  0
ARC
  5
7E3
330
671
100
AcDbEntity
  8
0
  6
CONTINUOUS
 62
     7
100
AcDbCircle
 10
25.9294611277
 20
13.6872962043
 30
0.0
 40
0.6040623388898081
100
AcDbArc
 50
3.2638320562
 51
80.1311780846
  0
ARC
  5
7E4
330
671
100
AcDbEntity
  8
0
  6
CONTINUOUS
 62
     7
100
AcDbCircle
 10
24.2002472838
 20
14.2166468958
 30
0.0
 40
0.3363574538728898
100
AcDbArc
 50
78.3716256834
 51
132.6731088679
  0
ARC
  5
7E5
330
671
100
AcDbEntity
  8
0
  6
CONTINUOUS
 62
     7
100
AcDbCircle
 10
19.2952141145
 20
14.757007919
 30
0.0
 40
0.6052045200717471
100
AcDbArc
 50
3.312077056
 51
78.638785374
  0
ARC
  5
7E6
330
671
100
AcDbEntity
  8
0
  6
CONTINUOUS
 62
     7
100
AcDbCircle
 10
17.5690652908
 20
15.3403927757
 30
0.0
 40
0.340686803694982
100
AcDbArc
 50
76.3460424245
 51
132.4492141831
  0
ARC
  5
7E7
330
671
100
AcDbEntity
  8
0
  6
CONTINUOUS
 62
     7
100
AcDbCircle
 10
39.4761555107
 20
-10.3986489699
 30
0.0
 40
0.3228395714668962
100
AcDbArc
 50
315.3544713609
 51
1.9112857849
  0
ARC
  5
7E8
330
671
100
AcDbEntity
  8
0
  6
CONTINUOUS
 62
     7
100
AcDbCircle
 10
12.6611858855
 20
16.0418546502
 30
0.0
 40
0.6061212152614808
100
AcDbArc
 50
3.3492511421
 51
77.1605548803
  0
ARC
  5
7E9
330
671
100
AcDbEntity
  8
0
  6
CONTINUOUS
 62
     7
100
AcDbCircle
 10
10.9378745197
 20
16.6784560623
 30
0.0
 40
0.345134920597586
100
AcDbArc
 50
74.3584263601
 51
132.2118435246
  0
ARC
  5
7EA
330
671
100
AcDbEntity
  8
0
  6
CONTINUOUS
 62
     7
100
AcDbCircle
 10
-11.2194817208
 20
22.4292173273
 30
0.0
 40
0.6075328214981109
100
AcDbArc
 50
3.3987253231
 51
71.9192202835
  0
ARC
  5
7EB
330
671
100
AcDbEntity
  8
0
  6
CONTINUOUS
 62
     7
100
AcDbCircle
 10
-12.9345721286
 20
23.2536682772
 30
0.0
 40
0.3620614010535159
100
AcDbArc
 50
67.476151695
 51
131.2512724818
  0
ARC
  5
7EC
330
671
100
AcDbEntity
  8
0
  6
CONTINUOUS
 62
     7
100
AcDbCircle
 10
-17.852481124
 20
24.6924902611
 30
0.0
 40
0.6073910545832417
100
AcDbArc
 50
3.3907469941
 51
70.4756897517
  0
ARC
  5
7ED
330
671
100
AcDbEntity
  8
0
  6
CONTINUOUS
 62
     7
100
AcDbCircle
 10
-19.5658743171
 20
25.5689102108
 30
0.0
 40
0.3670000388292184
100
AcDbArc
 50
65.6292474463
 51
130.9565220115
  0
ARC
  5
7EE
330
671
100
AcDbEntity
  8
0
  6
CONTINUOUS
 62
     7
100
AcDbCircle
 10
-24.4852487201
 20
27.1703493769
 30
0.0
 40
0.6070115730408266
100
AcDbArc
 50
3.3739472847
 51
69.0332878667
  0
ARC
  5
7EF
330
671
100
AcDbEntity
  8
0
  6
CONTINUOUS
 62
     7
100
AcDbCircle
 10
-26.1972149309
 20
28.0990109993
 30
0.0
 40
0.3720353078398929
100
AcDbArc
 50
63.8058407459
 51
130.650271447
  0
ARC
  5
7F0
330
671
100
AcDbEntity
  8
0
  6
CONTINUOUS
 62
     7
100
AcDbCircle
 10
-31.11778033
 20
29.8650453541
 30
0.0
 40
0.6063904669054984
100
AcDbArc
 50
3.3486030064
 51
67.5896989911
  0
ARC
  5
7F1
330
671
100
AcDbEntity
  8
0
  6
CONTINUOUS
 62
     7
100
AcDbCircle
 10
-10.0068313627
 20
8.4919026964
 30
0.0
 40
0.6072496643082956
100
AcDbArc
 50
183.391562315
 51
254.3338098233
  0
ARC
  5
7F2
330
671
100
AcDbEntity
  8
0
  6
CONTINUOUS
 62
     7
100
AcDbCircle
 10
-32.8285987411
 20
30.8464279626
 30
0.0
 40
0.3771642650277596
100
AcDbArc
 50
62.0034310813
 51
130.3328433188
  0
ARC
  5
7F3
330
671
100
AcDbEntity
  8
0
  6
CONTINUOUS
 62
     7
100
AcDbCircle
 10
-37.7500711219
 20
32.7796014965
 30
0.0
 40
0.6055232018927812
100
AcDbArc
 50
3.314960429
 51
66.1425503168
  0
ARC
  5
7F4
330
671
100
AcDbEntity
  8
0
  6
CONTINUOUS
 62
     7
100
AcDbCircle
 10
-39.4605030124
 20
33.8196859354
 30
0.0
 40
0.378046165760804
100
AcDbArc
 50
59.7596818725
 51
130.4643600353
  0
VIEWPORT
  5
989
330
671
100
AcDbEntity
  8
0
100
AcDbViewport
 10
0.0
 20
0.0
 30
0.0
 40
205.6
 41
156.0
 68
     1
 69
     1
1001
ACAD
1000
MVIEW
1002
{
1070
    16
1010
0.0
1020
0.0
1030
0.0
1010
0.0
1020
0.0
1030
1.0
1040
0.0
1040
596.5052109039
1040
353.5524304769
1040
-192.8681346605
1040
50.0
1040
0.0
1040
0.0
1070
     0
1070
   100
1070
     0
1070
     3
1070
     0
1070
     0
1070
     0
1070
     0
1040
0.0
1040
0.0
1040
0.0
1040
10.0
1040
10.0
1040
10.0
1040
10.0
1070
     0
1002
{
1002
}
1002
}
  0
ENDBLK
  5
674
330
671
100
AcDbEntity
  8
0
100
AcDbBlockEnd
  0
BLOCK
  5
7F7
330
7F5
100
AcDbEntity
  8
0
100
AcDbBlockBegin
  2
*PAPER_SPACE8
 70
     0
 10
0.0
 20
0.0
 30
0.0
  3
*PAPER_SPACE8
  1

  0
LINE
  5
8B9
330
7F5
100
AcDbEntity
  8
0
  6
CONTINUOUS
 62
     7
100
AcDbLine
 10
39.4243908219
 20
20.3555123081
 30
0.0
 11
-314.1289996903
 21
-291.4492698591
 31
0.0
  0
LINE
  5
8BA
330
7F5
100
AcDbEntity
  8
0
  6
CONTINUOUS
 62
     7
100
AcDbLine
 10
32.4087832215
 20
20.0169460544
 30
0.0
 11
-321.1446072907
 21
-291.7878361128
 31
0.0
  0
LINE
  5
8BB
330
7F5
100
AcDbEntity
  8
0
  6
CONTINUOUS
 62
     7
100
AcDbLine
 10
25.393175621
 20
19.9200953483
 30
0.0
 11
-328.1602148911
 21
-291.8846868189
 31
0.0
  0
LINE
  5
8BC
330
7F5
100
AcDbEntity
  8
0
  6
CONTINUOUS
 62
     7
100
AcDbLine
 10
-311.5967331691
 20
-316.9527529377
 30
0.0
 11
41.9566573431
 21
-5.1479707705
 31
0.0
  0
LINE
  5
8BD
330
7F5
100
AcDbEntity
  8
0
  6
CONTINUOUS
 62
     7
100
AcDbLine
 10
18.3775680206
 20
20.0616316011
 30
0.0
 11
-335.1758224916
 21
-291.7431505661
 31
0.0
  0
LINE
  5
8BE
330
7F5
100
AcDbEntity
  8
0
  6
CONTINUOUS
 62
     7
100
AcDbLine
 10
11.3619604202
 20
20.4390758799
 30
0.0
 11
-342.191430092
 21
-291.3657062873
 31
0.0
  0
LINE
  5
8BF
330
7F5
100
AcDbEntity
  8
0
  6
CONTINUOUS
 62
     7
100
AcDbLine
 10
-13.8942269414
 20
23.7331488331
 30
0.0
 11
-367.4476174536
 21
-288.0716333341
 31
0.0
  0
LINE
  5
8C0
330
7F5
100
AcDbEntity
  8
0
  6
CONTINUOUS
 62
     7
100
AcDbLine
 10
-20.9098345418
 20
25.1861841564
 30
0.0
 11
-374.463225054
 21
-286.6185980108
 31
0.0
  0
LINE
  5
8C1
330
7F5
100
AcDbEntity
  8
0
  6
CONTINUOUS
 62
     7
100
AcDbLine
 10
-27.9254421422
 20
26.8757081265
 30
0.0
 11
-381.4788326544
 21
-284.9290740407
 31
0.0
  0
LINE
  5
8C2
330
7F5
100
AcDbEntity
  8
0
  6
CONTINUOUS
 62
     7
100
AcDbLine
 10
-34.9410497427
 20
28.8044215033
 30
0.0
 11
-388.4944402548
 21
-283.0003606639
 31
0.0
  0
LINE
  5
8C3
330
7F5
100
AcDbEntity
  8
0
  6
CONTINUOUS
 62
     7
100
AcDbLine
 10
-41.9566573431
 20
30.9758885632
 30
0.0
 11
-395.5100478553
 21
-280.828893604
 31
0.0
  0
LINE
  5
8C4
330
7F5
100
AcDbEntity
  8
0
  6
CONTINUOUS
 62
     7
100
AcDbLine
 10
-395.0878433624
 20
-280.7531213582
 30
0.0
 11
-393.2211263804
 21
-281.35482621
 31
0.0
  0
LINE
  5
8C5
330
7F5
100
AcDbEntity
  8
0
  6
CONTINUOUS
 62
     7
100
AcDbLine
 10
-392.8407930746
 20
-281.865849362
 30
0.0
 11
-392.8407930746
 21
-300.7267759307
 31
0.0
  0
LINE
  5
8C6
330
7F5
100
AcDbEntity
  8
0
  6
CONTINUOUS
 62
     7
100
AcDbLine
 10
-392.3730859012
 20
-301.2571060166
 30
0.0
 11
-389.0991356877
 21
-301.6695849721
 31
0.0
  0
LINE
  5
8C7
330
7F5
100
AcDbEntity
  8
0
  6
CONTINUOUS
 62
     7
100
AcDbLine
 10
-388.6314285143
 20
-301.2571060164
 30
0.0
 11
-388.6314285143
 21
-283.3164350989
 31
0.0
  0
LINE
  5
8C8
330
7F5
100
AcDbEntity
  8
0
  6
CONTINUOUS
 62
     7
100
AcDbLine
 10
-388.0876546798
 20
-282.9198159631
 30
0.0
 11
-386.2209376978
 21
-283.4565301122
 31
0.0
  0
LINE
  5
8C9
330
7F5
100
AcDbEntity
  8
0
  6
CONTINUOUS
 62
     7
100
AcDbLine
 10
-385.8251854741
 20
-283.9721825679
 30
0.0
 11
-385.8251854741
 21
-301.6106594068
 31
0.0
  0
LINE
  5
8CA
330
7F5
100
AcDbEntity
  8
0
  6
CONTINUOUS
 62
     7
100
AcDbLine
 10
-385.3574783008
 20
-302.1409894927
 30
0.0
 11
-382.0835280873
 21
-302.5534684482
 31
0.0
  0
LINE
  5
8CB
330
7F5
100
AcDbEntity
  8
0
  6
CONTINUOUS
 62
     7
100
AcDbLine
 10
-381.6158209139
 20
-302.1409894924
 30
0.0
 11
-381.6158209139
 21
-285.2451484756
 31
0.0
  0
LINE
  5
8CC
330
7F5
100
AcDbEntity
  8
0
  6
CONTINUOUS
 62
     7
100
AcDbLine
 10
-381.0874659972
 20
-284.8442904093
 30
0.0
 11
-379.2207490151
 21
-285.3170497096
 31
0.0
  0
LINE
  5
8CD
330
7F5
100
AcDbEntity
  8
0
  6
CONTINUOUS
 62
     7
100
AcDbLine
 10
-378.8095778737
 20
-285.8368002261
 30
0.0
 11
-378.8095778737
 21
-302.4945428829
 31
0.0
  0
LINE
  5
8CE
330
7F5
100
AcDbEntity
  8
0
  6
CONTINUOUS
 62
     7
100
AcDbLine
 10
-378.3418707004
 20
-303.0248729688
 30
0.0
 11
-375.0679204868
 21
-303.4373519242
 31
0.0
  0
LINE
  5
8CF
330
7F5
100
AcDbEntity
  8
0
  6
CONTINUOUS
 62
     7
100
AcDbLine
 10
-374.6002133135
 20
-303.0248729685
 30
0.0
 11
-374.6002133135
 21
-286.9346724457
 31
0.0
  0
LINE
  5
8D0
330
7F5
100
AcDbEntity
  8
0
  6
CONTINUOUS
 62
     7
100
AcDbLine
 10
-374.0872773145
 20
-286.5301011399
 30
0.0
 11
-372.2205603325
 21
-286.9397062756
 31
0.0
  0
LINE
  5
8D1
330
7F5
100
AcDbEntity
  8
0
  6
CONTINUOUS
 62
     7
100
AcDbLine
 10
-371.7939702733
 20
-287.4630309255
 30
0.0
 11
-371.7939702733
 21
-303.3784263589
 31
0.0
  0
LINE
  5
8D2
330
7F5
100
AcDbEntity
  8
0
  6
CONTINUOUS
 62
     7
100
AcDbLine
 10
-371.3262630999
 20
-303.9087564448
 30
0.0
 11
-368.0523128864
 21
-304.3212354003
 31
0.0
  0
LINE
  5
8D3
330
7F5
100
AcDbEntity
  8
0
  6
CONTINUOUS
 62
     7
100
AcDbLine
 10
-367.584605713
 20
-303.9087564446
 30
0.0
 11
-367.584605713
 21
-288.387707769
 31
0.0
  0
LINE
  5
8D4
330
7F5
100
AcDbEntity
  8
0
  6
CONTINUOUS
 62
     7
100
AcDbLine
 10
-367.0870886319
 20
-287.979942979
 30
0.0
 11
-365.2203716499
 21
-288.3269732947
 31
0.0
  0
LINE
  5
8D5
330
7F5
100
AcDbEntity
  8
0
  6
CONTINUOUS
 62
     7
100
AcDbLine
 10
-364.7783626729
 20
-288.8533535988
 30
0.0
 11
-364.7783626729
 21
-304.262309835
 31
0.0
  0
LINE
  5
8D6
330
7F5
100
AcDbEntity
  8
0
  6
CONTINUOUS
 62
     7
100
AcDbLine
 10
-364.3106554995
 20
-304.7926399209
 30
0.0
 11
-342.7961255248
 21
-307.5032159142
 31
0.0
  0
LINE
  5
8D7
330
7F5
100
AcDbEntity
  8
0
  6
CONTINUOUS
 62
     7
100
AcDbLine
 10
-342.3284183515
 20
-307.0907369584
 30
0.0
 11
-342.3284183515
 21
-291.6817807222
 31
0.0
  0
LINE
  5
8D8
330
7F5
100
AcDbEntity
  8
0
  6
CONTINUOUS
 62
     7
100
AcDbLine
 10
-341.8864093745
 20
-291.2667762114
 30
0.0
 11
-340.0196923924
 21
-291.3901143624
 31
0.0
  0
LINE
  5
8D9
330
7F5
100
AcDbEntity
  8
0
  6
CONTINUOUS
 62
     7
100
AcDbLine
 10
-339.5221753113
 20
-291.9232416733
 30
0.0
 11
-339.5221753113
 21
-307.4442903489
 31
0.0
  0
LINE
  5
8DA
330
7F5
100
AcDbEntity
  8
0
  6
CONTINUOUS
 62
     7
100
AcDbLine
 10
-339.0544681379
 20
-307.9746204347
 30
0.0
 11
-335.7805179244
 21
-308.3870993902
 31
0.0
  0
LINE
  5
8DB
330
7F5
100
AcDbEntity
  8
0
  6
CONTINUOUS
 62
     7
100
AcDbLine
 10
-335.312810751
 20
-307.9746204345
 30
0.0
 11
-335.312810751
 21
-292.059225001
 31
0.0
  0
LINE
  5
8DC
330
7F5
100
AcDbEntity
  8
0
  6
CONTINUOUS
 62
     7
100
AcDbLine
 10
-334.8862206918
 20
-291.6433909423
 30
0.0
 11
-333.0195037098
 21
-291.7041542734
 31
0.0
  0
LINE
  5
8DD
330
7F5
100
AcDbEntity
  8
0
  6
CONTINUOUS
 62
     7
100
AcDbLine
 10
-332.5065677109
 20
-292.2379733021
 30
0.0
 11
-332.5065677109
 21
-308.3281738249
 31
0.0
  0
LINE
  5
8DE
330
7F5
100
AcDbEntity
  8
0
  6
CONTINUOUS
 62
     7
100
AcDbLine
 10
-332.0388605375
 20
-308.8585039108
 30
0.0
 11
-328.764910324
 21
-309.2709828663
 31
0.0
  0
LINE
  5
8DF
330
7F5
100
AcDbEntity
  8
0
  6
CONTINUOUS
 62
     7
100
AcDbLine
 10
-328.2972031506
 20
-308.8585039106
 30
0.0
 11
-328.2972031506
 21
-292.2007612538
 31
0.0
  0
LINE
  5
8E0
330
7F5
100
AcDbEntity
  8
0
  6
CONTINUOUS
 62
     7
100
AcDbLine
 10
-327.8860320092
 20
-291.7846161264
 30
0.0
 11
-326.0193150272
 21
-291.7822252929
 31
0.0
  0
LINE
  5
8E1
330
7F5
100
AcDbEntity
  8
0
  6
CONTINUOUS
 62
     7
100
AcDbLine
 10
-325.4909601104
 20
-292.3162162842
 30
0.0
 11
-325.4909601104
 21
-309.212057301
 31
0.0
  0
LINE
  5
8E2
330
7F5
100
AcDbEntity
  8
0
  6
CONTINUOUS
 62
     7
100
AcDbLine
 10
-325.0232529371
 20
-309.7423873869
 30
0.0
 11
-321.7493027235
 21
-310.1548663424
 31
0.0
  0
LINE
  5
8E3
330
7F5
100
AcDbEntity
  8
0
  6
CONTINUOUS
 62
     7
100
AcDbLine
 10
-321.2815955502
 20
-309.7423873866
 30
0.0
 11
-321.2815955502
 21
-292.1039105477
 31
0.0
  0
LINE
  5
8E4
330
7F5
100
AcDbEntity
  8
0
  6
CONTINUOUS
 62
     7
100
AcDbLine
 10
-320.8858433266
 20
-291.6879782791
 30
0.0
 11
-319.0191263445
 21
-291.6216325966
 31
0.0
  0
LINE
  5
8E5
330
7F5
100
AcDbEntity
  8
0
  6
CONTINUOUS
 62
     7
100
AcDbLine
 10
-318.47535251
 20
-292.1552698596
 30
0.0
 11
-318.47535251
 21
-310.0959407771
 31
0.0
  0
LINE
  5
8E6
330
7F5
100
AcDbEntity
  8
0
  6
CONTINUOUS
 62
     7
100
AcDbLine
 10
-318.0076453366
 20
-310.626270863
 30
0.0
 11
-314.7336951231
 21
-311.0387498185
 31
0.0
  0
LINE
  5
8E7
330
7F5
100
AcDbEntity
  8
0
  6
CONTINUOUS
 62
     7
100
AcDbLine
 10
-314.2659879498
 20
-310.6262708627
 30
0.0
 11
-314.2659879498
 21
-291.765344294
 31
0.0
  0
LINE
  5
8E8
330
7F5
100
AcDbEntity
  8
0
  6
CONTINUOUS
 62
     7
100
AcDbLine
 10
-313.8856546439
 20
-291.350156127
 30
0.0
 11
-312.0189376619
 21
-291.2188197418
 31
0.0
  0
LINE
  5
8E9
330
7F5
100
AcDbEntity
  8
0
  6
CONTINUOUS
 62
     7
100
AcDbLine
 10
-311.4597449096
 20
-291.7515697518
 30
0.0
 11
-311.4597449096
 21
-316.6366785028
 31
0.0
  0
LINE
  5
8EA
330
7F5
100
AcDbEntity
  8
0
  6
CONTINUOUS
 62
     7
100
AcDbLine
 10
-311.9274520829
 20
-317.0491574585
 30
0.0
 11
-395.1793289414
 21
-306.5604068758
 31
0.0
  0
LINE
  5
8EB
330
7F5
100
AcDbEntity
  8
0
  6
CONTINUOUS
 62
     7
100
AcDbLine
 10
-395.6470361148
 20
-306.03007679
 30
0.0
 11
-395.6470361148
 21
-281.1449680389
 31
0.0
  0
LINE
  5
8EC
330
7F5
100
AcDbEntity
  8
0
  6
CONTINUOUS
 62
     7
100
AcDbLine
 10
-311.4597449096
 20
-291.7515697518
 30
0.0
 11
42.0936456026
 21
20.0532124154
 31
0.0
  0
LINE
  5
8ED
330
7F5
100
AcDbEntity
  8
0
  6
CONTINUOUS
 62
     7
100
AcDbLine
 10
-312.0189376619
 20
-291.2188197418
 30
0.0
 11
41.5344528503
 21
20.5859624254
 31
0.0
  0
LINE
  5
8EE
330
7F5
100
AcDbEntity
  8
0
  6
CONTINUOUS
 62
     7
100
AcDbLine
 10
-311.4597449096
 20
-316.6366785028
 30
0.0
 11
42.0936456026
 21
-4.8318963356
 31
0.0
  0
LINE
  5
8EF
330
7F5
100
AcDbEntity
  8
0
  6
CONTINUOUS
 62
     7
100
AcDbLine
 10
42.0936456026
 20
20.0532124154
 30
0.0
 11
42.0936456026
 21
-4.8318963356
 31
0.0
  0
LINE
  5
8F0
330
7F5
100
AcDbEntity
  8
0
  6
CONTINUOUS
 62
     7
100
AcDbLine
 10
-313.8856546439
 20
-291.350156127
 30
0.0
 11
39.6677358682
 21
20.4546260402
 31
0.0
  0
LINE
  5
8F1
330
7F5
100
AcDbEntity
  8
0
  6
CONTINUOUS
 62
     7
100
AcDbLine
 10
39.6677358682
 20
20.4546260402
 30
0.0
 11
41.5344528503
 21
20.5859624254
 31
0.0
  0
LINE
  5
8F2
330
7F5
100
AcDbEntity
  8
0
  6
CONTINUOUS
 62
     7
100
AcDbLine
 10
-318.47535251
 20
-292.1552698596
 30
0.0
 11
35.0780380022
 21
19.6495123076
 31
0.0
  0
LINE
  5
8F3
330
7F5
100
AcDbEntity
  8
0
  6
CONTINUOUS
 62
     7
100
AcDbLine
 10
-319.0191263445
 20
-291.6216325966
 30
0.0
 11
34.5342641676
 21
20.1831495706
 31
0.0
  0
LINE
  5
8F4
330
7F5
100
AcDbEntity
  8
0
  6
CONTINUOUS
 62
     7
100
AcDbLine
 10
35.0780380022
 20
19.6495123076
 30
0.0
 11
35.0780380022
 21
16.5223894177
 31
0.0
  0
LINE
  5
8F5
330
7F5
100
AcDbEntity
  8
0
  6
CONTINUOUS
 62
     7
100
AcDbLine
 10
-320.8858433266
 20
-291.6879782791
 30
0.0
 11
32.6675471856
 21
20.1168038881
 31
0.0
  0
LINE
  5
8F6
330
7F5
100
AcDbEntity
  8
0
  6
CONTINUOUS
 62
     7
100
AcDbLine
 10
32.6675471856
 20
20.1168038881
 30
0.0
 11
34.5342641676
 21
20.1831495706
 31
0.0
  0
LINE
  5
8F7
330
7F5
100
AcDbEntity
  8
0
  6
CONTINUOUS
 62
     7
100
AcDbLine
 10
-325.4909601104
 20
-292.3162162842
 30
0.0
 11
28.0624304017
 21
19.488565883
 31
0.0
  0
LINE
  5
8F8
330
7F5
100
AcDbEntity
  8
0
  6
CONTINUOUS
 62
     7
100
AcDbLine
 10
-326.0193150272
 20
-291.7822252929
 30
0.0
 11
27.534075485
 21
20.0225568743
 31
0.0
  0
LINE
  5
8F9
330
7F5
100
AcDbEntity
  8
0
  6
CONTINUOUS
 62
     7
100
AcDbLine
 10
28.0624304017
 20
19.488565883
 30
0.0
 11
28.0624304017
 21
16.1838231639
 31
0.0
  0
LINE
  5
8FA
330
7F5
100
AcDbEntity
  8
0
  6
CONTINUOUS
 62
     7
100
AcDbLine
 10
-327.8860320092
 20
-291.7846161264
 30
0.0
 11
25.667358503
 21
20.0201660407
 31
0.0
  0
LINE
  5
8FB
330
7F5
100
AcDbEntity
  8
0
  6
CONTINUOUS
 62
     7
100
AcDbLine
 10
25.667358503
 20
20.0201660407
 30
0.0
 11
27.534075485
 21
20.0225568743
 31
0.0
  0
LINE
  5
8FC
330
7F5
100
AcDbEntity
  8
0
  6
CONTINUOUS
 62
     7
100
AcDbLine
 10
-332.5065677109
 20
-292.2379733021
 30
0.0
 11
21.0468228013
 21
19.5668088651
 31
0.0
  0
LINE
  5
8FD
330
7F5
100
AcDbEntity
  8
0
  6
CONTINUOUS
 62
     7
100
AcDbLine
 10
-333.0195037098
 20
-291.7041542734
 30
0.0
 11
20.5338868024
 21
20.1006278938
 31
0.0
  0
LINE
  5
8FE
330
7F5
100
AcDbEntity
  8
0
  6
CONTINUOUS
 62
     7
100
AcDbLine
 10
21.0468228013
 20
19.5668088651
 30
0.0
 11
21.0468228013
 21
16.0869724578
 31
0.0
  0
LINE
  5
8FF
330
7F5
100
AcDbEntity
  8
0
  6
CONTINUOUS
 62
     7
100
AcDbLine
 10
-334.8862206918
 20
-291.6433909423
 30
0.0
 11
18.6671698203
 21
20.1613912248
 31
0.0
  0
LINE
  5
900
330
7F5
100
AcDbEntity
  8
0
  6
CONTINUOUS
 62
     7
100
AcDbLine
 10
18.6671698203
 20
20.1613912248
 30
0.0
 11
20.5338868024
 21
20.1006278938
 31
0.0
  0
LINE
  5
901
330
7F5
100
AcDbEntity
  8
0
  6
CONTINUOUS
 62
     7
100
AcDbLine
 10
-339.5221753113
 20
-291.9232416733
 30
0.0
 11
14.0312152009
 21
19.8815404939
 31
0.0
  0
LINE
  5
902
330
7F5
100
AcDbEntity
  8
0
  6
CONTINUOUS
 62
     7
100
AcDbLine
 10
-340.0196923924
 20
-291.3901143624
 30
0.0
 11
13.5336981197
 21
20.4146678048
 31
0.0
  0
LINE
  5
903
330
7F5
100
AcDbEntity
  8
0
  6
CONTINUOUS
 62
     7
100
AcDbLine
 10
14.0312152009
 20
19.8815404939
 30
0.0
 11
14.0312152009
 21
16.2285087106
 31
0.0
  0
LINE
  5
904
330
7F5
100
AcDbEntity
  8
0
  6
CONTINUOUS
 62
     7
100
AcDbLine
 10
-341.8864093745
 20
-291.2667762114
 30
0.0
 11
11.6669811377
 21
20.5380059558
 31
0.0
  0
LINE
  5
905
330
7F5
100
AcDbEntity
  8
0
  6
CONTINUOUS
 62
     7
100
AcDbLine
 10
11.6669811377
 20
20.5380059558
 30
0.0
 11
13.5336981197
 21
20.4146678048
 31
0.0
  0
LINE
  5
906
330
7F5
100
AcDbEntity
  8
0
  6
CONTINUOUS
 62
     7
100
AcDbLine
 10
-364.3106554995
 20
-304.7926399209
 30
0.0
 11
-10.7572649873
 21
7.0121422463
 31
0.0
  0
LINE
  5
907
330
7F5
100
AcDbEntity
  8
0
  6
CONTINUOUS
 62
     7
100
AcDbLine
 10
-10.7572649873
 20
7.0121422463
 30
0.0
 11
-4.7245654793
 21
6.2520935499
 31
0.0
  0
LINE
  5
908
330
7F5
100
AcDbEntity
  8
0
  6
CONTINUOUS
 62
     7
100
AcDbLine
 10
-364.7783626729
 20
-288.8533535988
 30
0.0
 11
-11.2249721607
 21
22.9514285684
 31
0.0
  0
LINE
  5
909
330
7F5
100
AcDbEntity
  8
0
  6
CONTINUOUS
 62
     7
100
AcDbLine
 10
-365.2203716499
 20
-288.3269732947
 30
0.0
 11
-11.6669811377
 21
23.4778088725
 31
0.0
  0
LINE
  5
90A
330
7F5
100
AcDbEntity
  8
0
  6
CONTINUOUS
 62
     7
100
AcDbLine
 10
-367.0870886319
 20
-287.979942979
 30
0.0
 11
-13.5336981197
 21
23.8248391882
 31
0.0
  0
LINE
  5
90B
330
7F5
100
AcDbEntity
  8
0
  6
CONTINUOUS
 62
     7
100
AcDbLine
 10
-13.5336981197
 20
23.8248391882
 30
0.0
 11
-11.6669811377
 21
23.4778088725
 31
0.0
  0
LINE
  5
90C
330
7F5
100
AcDbEntity
  8
0
  6
CONTINUOUS
 62
     7
100
AcDbLine
 10
-364.7783626729
 20
-304.262309835
 30
0.0
 11
-11.2249721607
 21
7.5424723322
 31
0.0
  0
LINE
  5
90D
330
7F5
100
AcDbEntity
  8
0
  6
CONTINUOUS
 62
     7
100
AcDbLine
 10
-11.2249721607
 20
22.9514285684
 30
0.0
 11
-11.2249721607
 21
7.5424723322
 31
0.0
  0
LINE
  5
90E
330
7F5
100
AcDbEntity
  8
0
  6
CONTINUOUS
 62
     7
100
AcDbLine
 10
-371.7939702733
 20
-287.4630309255
 30
0.0
 11
-18.2405797611
 21
24.3417512417
 31
0.0
  0
LINE
  5
90F
330
7F5
100
AcDbEntity
  8
0
  6
CONTINUOUS
 62
     7
100
AcDbLine
 10
-372.2205603325
 20
-286.9397062756
 30
0.0
 11
-18.6671698203
 21
24.8650758916
 31
0.0
  0
LINE
  5
910
330
7F5
100
AcDbEntity
  8
0
  6
CONTINUOUS
 62
     7
100
AcDbLine
 10
-374.0872773145
 20
-286.5301011399
 30
0.0
 11
-20.5338868024
 21
25.2746810273
 31
0.0
  0
LINE
  5
911
330
7F5
100
AcDbEntity
  8
0
  6
CONTINUOUS
 62
     7
100
AcDbLine
 10
-20.5338868024
 20
25.2746810273
 30
0.0
 11
-18.6671698203
 21
24.8650758916
 31
0.0
  0
LINE
  5
912
330
7F5
100
AcDbEntity
  8
0
  6
CONTINUOUS
 62
     7
100
AcDbLine
 10
-18.2405797611
 20
24.3417512417
 30
0.0
 11
-18.2405797611
 21
19.9000259426
 31
0.0
  0
LINE
  5
913
330
7F5
100
AcDbEntity
  8
0
  6
CONTINUOUS
 62
     7
100
AcDbLine
 10
-378.8095778737
 20
-285.8368002261
 30
0.0
 11
-25.2561873616
 21
25.9679819411
 31
0.0
  0
LINE
  5
914
330
7F5
100
AcDbEntity
  8
0
  6
CONTINUOUS
 62
     7
100
AcDbLine
 10
-379.2207490151
 20
-285.3170497096
 30
0.0
 11
-25.667358503
 21
26.4877324576
 31
0.0
  0
LINE
  5
915
330
7F5
100
AcDbEntity
  8
0
  6
CONTINUOUS
 62
     7
100
AcDbLine
 10
-381.0874659972
 20
-284.8442904093
 30
0.0
 11
-27.534075485
 21
26.9604917579
 31
0.0
  0
LINE
  5
916
330
7F5
100
AcDbEntity
  8
0
  6
CONTINUOUS
 62
     7
100
AcDbLine
 10
-27.534075485
 20
26.9604917579
 30
0.0
 11
-25.667358503
 21
26.4877324576
 31
0.0
  0
LINE
  5
917
330
7F5
100
AcDbEntity
  8
0
  6
CONTINUOUS
 62
     7
100
AcDbLine
 10
-25.2561873616
 20
25.9679819411
 30
0.0
 11
-25.2561873616
 21
21.353061266
 31
0.0
  0
LINE
  5
918
330
7F5
100
AcDbEntity
  8
0
  6
CONTINUOUS
 62
     7
100
AcDbLine
 10
-385.8251854741
 20
-283.9721825679
 30
0.0
 11
-32.271794962
 21
27.8325995993
 31
0.0
  0
LINE
  5
919
330
7F5
100
AcDbEntity
  8
0
  6
CONTINUOUS
 62
     7
100
AcDbLine
 10
-386.2209376978
 20
-283.4565301122
 30
0.0
 11
-32.6675471856
 21
28.348252055
 31
0.0
  0
LINE
  5
91A
330
7F5
100
AcDbEntity
  8
0
  6
CONTINUOUS
 62
     7
100
AcDbLine
 10
-388.0876546798
 20
-282.9198159631
 30
0.0
 11
-34.5342641676
 21
28.8849662041
 31
0.0
  0
LINE
  5
91B
330
7F5
100
AcDbEntity
  8
0
  6
CONTINUOUS
 62
     7
100
AcDbLine
 10
-34.5342641676
 20
28.8849662041
 30
0.0
 11
-32.6675471856
 21
28.348252055
 31
0.0
  0
LINE
  5
91C
330
7F5
100
AcDbEntity
  8
0
  6
CONTINUOUS
 62
     7
100
AcDbLine
 10
-32.271794962
 20
27.8325995993
 30
0.0
 11
-32.271794962
 21
23.042585236
 31
0.0
  0
LINE
  5
91D
330
7F5
100
AcDbEntity
  8
0
  6
CONTINUOUS
 62
     7
100
AcDbLine
 10
-392.8407930746
 20
-281.865849362
 30
0.0
 11
-39.2874025624
 21
29.9389328052
 31
0.0
  0
LINE
  5
91E
330
7F5
100
AcDbEntity
  8
0
  6
CONTINUOUS
 62
     7
100
AcDbLine
 10
-393.2211263804
 20
-281.35482621
 30
0.0
 11
-39.6677358682
 21
30.4499559572
 31
0.0
  0
LINE
  5
91F
330
7F5
100
AcDbEntity
  8
0
  6
CONTINUOUS
 62
     7
100
AcDbLine
 10
-395.0878433624
 20
-280.7531213582
 30
0.0
 11
-41.5344528503
 21
31.051660809
 31
0.0
  0
LINE
  5
920
330
7F5
100
AcDbEntity
  8
0
  6
CONTINUOUS
 62
     7
100
AcDbLine
 10
-41.5344528503
 20
31.051660809
 30
0.0
 11
-39.6677358682
 21
30.4499559572
 31
0.0
  0
LINE
  5
921
330
7F5
100
AcDbEntity
  8
0
  6
CONTINUOUS
 62
     7
100
AcDbLine
 10
-39.2874025624
 20
29.9389328052
 30
0.0
 11
-39.2874025624
 21
24.9712986128
 31
0.0
  0
LINE
  5
922
330
7F5
100
AcDbEntity
  8
0
  6
CONTINUOUS
 62
     8
100
AcDbLine
 10
-318.47535251
 20
-310.0959407771
 30
0.0
 11
-314.2659879498
 21
-306.3836301756
 31
0.0
  0
LINE
  5
923
330
7F5
100
AcDbEntity
  8
0
  6
CONTINUOUS
 62
     8
100
AcDbLine
 10
-325.4909601104
 20
-309.212057301
 30
0.0
 11
-321.2815955502
 21
-305.4997466996
 31
0.0
  0
LINE
  5
924
330
7F5
100
AcDbEntity
  8
0
  6
CONTINUOUS
 62
     8
100
AcDbLine
 10
-314.7336951231
 20
-311.0387498185
 30
0.0
 11
-314.2659879498
 21
-310.6262708627
 31
0.0
  0
LINE
  5
925
330
7F5
100
AcDbEntity
  8
0
  6
CONTINUOUS
 62
     8
100
AcDbLine
 10
-318.0076453366
 20
-310.626270863
 30
0.0
 11
-314.2659879498
 21
-307.3264392172
 31
0.0
  0
LINE
  5
926
330
7F5
100
AcDbEntity
  8
0
  6
CONTINUOUS
 62
     8
100
AcDbLine
 10
-332.5065677109
 20
-308.3281738249
 30
0.0
 11
-328.2972031506
 21
-304.6158632235
 31
0.0
  0
LINE
  5
927
330
7F5
100
AcDbEntity
  8
0
  6
CONTINUOUS
 62
     8
100
AcDbLine
 10
-321.7493027235
 20
-310.1548663424
 30
0.0
 11
-321.2815955502
 21
-309.7423873867
 31
0.0
  0
LINE
  5
928
330
7F5
100
AcDbEntity
  8
0
  6
CONTINUOUS
 62
     8
100
AcDbLine
 10
-325.0232529371
 20
-309.7423873869
 30
0.0
 11
-321.2815955502
 21
-306.4425557412
 31
0.0
  0
LINE
  5
929
330
7F5
100
AcDbEntity
  8
0
  6
CONTINUOUS
 62
     8
100
AcDbLine
 10
-339.5221753113
 20
-307.4442903489
 30
0.0
 11
-335.312810751
 21
-303.7319797474
 31
0.0
  0
LINE
  5
92A
330
7F5
100
AcDbEntity
  8
0
  6
CONTINUOUS
 62
     8
100
AcDbLine
 10
-328.764910324
 20
-309.2709828663
 30
0.0
 11
-328.2972031506
 21
-308.8585039106
 31
0.0
  0
LINE
  5
92B
330
7F5
100
AcDbEntity
  8
0
  6
CONTINUOUS
 62
     8
100
AcDbLine
 10
-332.0388605375
 20
-308.8585039108
 30
0.0
 11
-328.2972031506
 21
-305.5586722651
 31
0.0
  0
LINE
  5
92C
330
7F5
100
AcDbEntity
  8
0
  6
CONTINUOUS
 62
     8
100
AcDbLine
 10
-335.7805179244
 20
-308.3870993902
 30
0.0
 11
-335.312810751
 21
-307.9746204345
 31
0.0
  0
LINE
  5
92D
330
7F5
100
AcDbEntity
  8
0
  6
CONTINUOUS
 62
     8
100
AcDbLine
 10
-339.0544681379
 20
-307.9746204347
 30
0.0
 11
-335.312810751
 21
-304.674788789
 31
0.0
  0
LINE
  5
92E
330
7F5
100
AcDbEntity
  8
0
  6
CONTINUOUS
 62
     8
100
AcDbLine
 10
-342.7961255248
 20
-307.5032159142
 30
0.0
 11
-342.3284183515
 21
-307.0907369585
 31
0.0
  0
LINE
  5
92F
330
7F5
100
AcDbEntity
  8
0
  6
CONTINUOUS
 62
     8
100
AcDbLine
 10
-371.7939702733
 20
-303.3784263589
 30
0.0
 11
-367.584605713
 21
-299.6661157575
 31
0.0
  0
LINE
  5
930
330
7F5
100
AcDbEntity
  8
0
  6
CONTINUOUS
 62
     8
100
AcDbLine
 10
-378.8095778737
 20
-302.4945428829
 30
0.0
 11
-374.6002133135
 21
-298.7822322814
 31
0.0
  0
LINE
  5
931
330
7F5
100
AcDbEntity
  8
0
  6
CONTINUOUS
 62
     8
100
AcDbLine
 10
-368.0523128864
 20
-304.3212354003
 30
0.0
 11
-367.584605713
 21
-303.9087564446
 31
0.0
  0
LINE
  5
932
330
7F5
100
AcDbEntity
  8
0
  6
CONTINUOUS
 62
     8
100
AcDbLine
 10
-385.8251854741
 20
-301.6106594068
 30
0.0
 11
-381.6158209139
 21
-297.8983488054
 31
0.0
  0
LINE
  5
933
330
7F5
100
AcDbEntity
  8
0
  6
CONTINUOUS
 62
     8
100
AcDbLine
 10
-371.3262630999
 20
-303.9087564448
 30
0.0
 11
-367.584605713
 21
-300.6089247991
 31
0.0
  0
LINE
  5
934
330
7F5
100
AcDbEntity
  8
0
  6
CONTINUOUS
 62
     8
100
AcDbLine
 10
-392.8407930746
 20
-300.7267759307
 30
0.0
 11
-388.6314285143
 21
-297.0144653293
 31
0.0
  0
LINE
  5
935
330
7F5
100
AcDbEntity
  8
0
  6
CONTINUOUS
 62
     8
100
AcDbLine
 10
-375.0679204868
 20
-303.4373519242
 30
0.0
 11
-374.6002133135
 21
-303.0248729685
 31
0.0
  0
LINE
  5
936
330
7F5
100
AcDbEntity
  8
0
  6
CONTINUOUS
 62
     8
100
AcDbLine
 10
-378.3418707004
 20
-303.0248729688
 30
0.0
 11
-374.6002133135
 21
-299.725041323
 31
0.0
  0
LINE
  5
937
330
7F5
100
AcDbEntity
  8
0
  6
CONTINUOUS
 62
     8
100
AcDbLine
 10
-382.0835280873
 20
-302.5534684482
 30
0.0
 11
-381.6158209139
 21
-302.1409894925
 31
0.0
  0
LINE
  5
938
330
7F5
100
AcDbEntity
  8
0
  6
CONTINUOUS
 62
     8
100
AcDbLine
 10
-385.3574783008
 20
-302.1409894927
 30
0.0
 11
-381.6158209139
 21
-298.841157847
 31
0.0
  0
LINE
  5
939
330
7F5
100
AcDbEntity
  8
0
  6
CONTINUOUS
 62
     8
100
AcDbLine
 10
-389.0991356877
 20
-301.6695849721
 30
0.0
 11
-388.6314285143
 21
-301.2571060164
 31
0.0
  0
LINE
  5
93A
330
7F5
100
AcDbEntity
  8
0
  6
CONTINUOUS
 62
     8
100
AcDbLine
 10
-392.3730859012
 20
-301.2571060166
 30
0.0
 11
-388.6314285143
 21
-297.9572743709
 31
0.0
  0
ARC
  5
93B
330
7F5
100
AcDbEntity
  8
0
  6
CONTINUOUS
 62
     7
100
AcDbCircle
 10
-395.234768712
 20
-281.1383755775
 30
0.0
 40
0.4123201085061236
100
AcDbArc
 50
69.1245264044
 51
180.9161239091
  0
ARC
  5
93C
330
7F5
100
AcDbEntity
  8
0
  6
CONTINUOUS
 62
     7
100
AcDbCircle
 10
-393.3897182113
 20
-281.8773468239
 30
0.0
 40
0.54904553300672
100
AcDbArc
 50
1.199908125
 51
72.1176491638
  0
ARC
  5
93D
330
7F5
100
AcDbEntity
  8
0
  6
CONTINUOUS
 62
     7
100
AcDbCircle
 10
-392.2948302563
 20
-300.7166865041
 30
0.0
 40
0.5460560369789913
100
AcDbArc
 50
181.0587090425
 51
261.7605351794
  0
ARC
  5
93E
330
7F5
100
AcDbEntity
  8
0
  6
CONTINUOUS
 62
     7
100
AcDbCircle
 10
-389.038270186
 20
-301.2671954431
 30
0.0
 40
0.406966758322204
100
AcDbArc
 50
261.3986348259
 51
1.4206093965
  0
ARC
  5
93F
330
7F5
100
AcDbEntity
  8
0
  6
CONTINUOUS
 62
     7
100
AcDbCircle
 10
-388.2202521435
 20
-283.3090945323
 30
0.0
 40
0.4112418897370599
100
AcDbArc
 50
71.1899461029
 51
181.0227698794
  0
ARC
  5
940
330
7F5
100
AcDbEntity
  8
0
  6
CONTINUOUS
 62
     7
100
AcDbCircle
 10
-386.3738223625
 20
-283.9835577289
 30
0.0
 40
0.5487547991008398
100
AcDbArc
 50
1.18777167
 51
73.8231623847
  0
ARC
  5
941
330
7F5
100
AcDbEntity
  8
0
  6
CONTINUOUS
 62
     7
100
AcDbCircle
 10
-385.2792226558
 20
-301.6005699801
 30
0.0
 40
0.5460560369787688
100
AcDbArc
 50
181.0587090425
 51
261.7605351794
  0
ARC
  5
942
330
7F5
100
AcDbEntity
  8
0
  6
CONTINUOUS
 62
     7
100
AcDbCircle
 10
-382.0226625856
 20
-302.1510789191
 30
0.0
 40
0.4069667583224679
100
AcDbArc
 50
261.3986348259
 51
1.4206093965
  0
ARC
  5
943
330
7F5
100
AcDbEntity
  8
0
  6
CONTINUOUS
 62
     7
100
AcDbCircle
 10
-381.2056658871
 20
-285.2371266122
 30
0.0
 40
0.4102334655788876
100
AcDbArc
 50
73.2540640366
 51
181.1204551857
  0
ARC
  5
944
330
7F5
100
AcDbEntity
  8
0
  6
CONTINUOUS
 62
     7
100
AcDbCircle
 10
-379.3578226792
 20
-285.8480003862
 30
0.0
 40
0.5483591982437698
100
AcDbArc
 50
1.1703396784
 51
75.5242290318
  0
ARC
  5
945
330
7F5
100
AcDbEntity
  8
0
  6
CONTINUOUS
 62
     7
100
AcDbCircle
 10
-378.2636150554
 20
-302.4844534562
 30
0.0
 40
0.5460560369788543
100
AcDbArc
 50
181.0587090425
 51
261.7605351794
  0
ARC
  5
946
330
7F5
100
AcDbEntity
  8
0
  6
CONTINUOUS
 62
     7
100
AcDbCircle
 10
-375.0070549852
 20
-303.0349623952
 30
0.0
 40
0.4069667583224203
100
AcDbArc
 50
261.3986348259
 51
1.4206093965
  0
ARC
  5
947
330
7F5
100
AcDbEntity
  8
0
  6
CONTINUOUS
 62
     7
100
AcDbCircle
 10
-374.1910086223
 20
-286.9260341089
 30
0.0
 40
0.4092958589513084
100
AcDbArc
 50
75.3189243862
 51
181.209337892
  0
ARC
  5
948
330
7F5
100
AcDbEntity
  8
0
  6
CONTINUOUS
 62
     7
100
AcDbCircle
 10
-372.3417220854
 20
-287.4740023064
 30
0.0
 40
0.5478616786336685
100
AcDbArc
 50
1.1474718343
 51
77.223183226
  0
ARC
  5
949
330
7F5
100
AcDbEntity
  8
0
  6
CONTINUOUS
 62
     7
100
AcDbCircle
 10
-371.248007455
 20
-303.3683369323
 30
0.0
 40
0.5460560369787336
100
AcDbArc
 50
181.0587090425
 51
261.7605351794
  0
ARC
  5
94A
330
7F5
100
AcDbEntity
  8
0
  6
CONTINUOUS
 62
     7
100
AcDbCircle
 10
-367.9914473847
 20
-303.9188458713
 30
0.0
 40
0.406966758322204
100
AcDbArc
 50
261.3986348259
 51
1.4206093965
  0
ARC
  5
94B
330
7F5
100
AcDbEntity
  8
0
  6
CONTINUOUS
 62
     7
100
AcDbCircle
 10
-367.1762788554
 20
-288.3785159537
 30
0.0
 40
0.4084303026740437
100
AcDbArc
 50
77.3865000948
 51
181.2895632047
  0
ARC
  5
94C
330
7F5
100
AcDbEntity
  8
0
  6
CONTINUOUS
 62
     7
100
AcDbCircle
 10
-365.3255231956
 20
-288.8640412759
 30
0.0
 40
0.5472648939055785
100
AcDbArc
 50
1.1190151844
 51
78.9222940727
  0
ARC
  5
94D
330
7F5
100
AcDbEntity
  8
0
  6
CONTINUOUS
 62
     7
100
AcDbCircle
 10
-364.2323998545
 20
-304.2522204083
 30
0.0
 40
0.5460560369787698
100
AcDbArc
 50
181.0587090425
 51
261.7605351794
  0
ARC
  5
94E
330
7F5
100
AcDbEntity
  8
0
  6
CONTINUOUS
 62
     7
100
AcDbCircle
 10
-342.7352600232
 20
-307.1008263851
 30
0.0
 40
0.4069667583222325
100
AcDbArc
 50
261.3986348259
 51
1.4206093965
  0
ARC
  5
94F
330
7F5
100
AcDbEntity
  8
0
  6
CONTINUOUS
 62
     7
100
AcDbCircle
 10
-341.9226236392
 20
-291.671093045
 30
0.0
 40
0.4059354319714062
100
AcDbArc
 50
84.8817309972
 51
181.5086871348
  0
ARC
  5
950
330
7F5
100
AcDbEntity
  8
0
  6
CONTINUOUS
 62
     7
100
AcDbCircle
 10
-340.0664267669
 20
-291.9324334886
 30
0.0
 40
0.5443290699390609
100
AcDbArc
 50
0.967571428
 51
85.0747016202
  0
ARC
  5
951
330
7F5
100
AcDbEntity
  8
0
  6
CONTINUOUS
 62
     7
100
AcDbCircle
 10
-338.976212493
 20
-307.4342009222
 30
0.0
 40
0.546056036978798
100
AcDbArc
 50
181.0587090425
 51
261.7605351794
  0
ARC
  5
952
330
7F5
100
AcDbEntity
  8
0
  6
CONTINUOUS
 62
     7
100
AcDbCircle
 10
-335.7196524228
 20
-307.9847098612
 30
0.0
 40
0.4069667583224556
100
AcDbArc
 50
261.3986348259
 51
1.4206093965
  0
ARC
  5
953
330
7F5
100
AcDbEntity
  8
0
  6
CONTINUOUS
 62
     7
100
AcDbCircle
 10
-334.9075358416
 20
-292.0482536201
 30
0.0
 40
0.4054233878857879
100
AcDbArc
 50
86.986282778
 51
181.5507012945
  0
ARC
  5
954
330
7F5
100
AcDbEntity
  8
0
  6
CONTINUOUS
 62
     7
100
AcDbCircle
 10
-333.0498018694
 20
-292.2466116389
 30
0.0
 40
0.5433028362670858
100
AcDbArc
 50
0.9110224767
 51
86.803149919
  0
ARC
  5
955
330
7F5
100
AcDbEntity
  8
0
  6
CONTINUOUS
 62
     7
100
AcDbCircle
 10
-331.9606048926
 20
-308.3180843983
 30
0.0
 40
0.5460560369789403
100
AcDbArc
 50
181.0587090425
 51
261.7605351794
  0
ARC
  5
956
330
7F5
100
AcDbEntity
  8
0
  6
CONTINUOUS
 62
     7
100
AcDbCircle
 10
-328.7040448223
 20
-308.8685933373
 30
0.0
 40
0.4069667583225242
100
AcDbArc
 50
261.3986348259
 51
1.4206093965
  0
ARC
  5
957
330
7F5
100
AcDbEntity
  8
0
  6
CONTINUOUS
 62
     7
100
AcDbCircle
 10
-327.8923635875
 20
-292.1895610937
 30
0.0
 40
0.4049944634505361
100
AcDbArc
 50
89.1042161606
 51
181.5847222265
  0
ARC
  5
958
330
7F5
100
AcDbEntity
  8
0
  6
CONTINUOUS
 62
     7
100
AcDbCircle
 10
-326.0330885967
 20
-292.3242381476
 30
0.0
 40
0.5421878327166444
100
AcDbArc
 50
0.8477425353
 51
88.544319397
  0
ARC
  5
959
330
7F5
100
AcDbEntity
  8
0
  6
CONTINUOUS
 62
     7
100
AcDbCircle
 10
-324.9449972921
 20
-309.2019678743
 30
0.0
 40
0.546056036978798
100
AcDbArc
 50
181.0587090425
 51
261.7605351794
  0
ARC
  5
95A
330
7F5
100
AcDbEntity
  8
0
  6
CONTINUOUS
 62
     7
100
AcDbCircle
 10
-321.6884372219
 20
-309.7524768133
 30
0.0
 40
0.4069667583223079
100
AcDbArc
 50
261.3986348259
 51
1.4206093965
  0
ARC
  5
95B
330
7F5
100
AcDbEntity
  8
0
  6
CONTINUOUS
 62
     7
100
AcDbCircle
 10
-320.8771039739
 20
-292.0925353867
 30
0.0
 40
0.4046514915313154
100
AcDbArc
 50
91.23752654
 51
181.6108542844
  0
ARC
  5
95C
330
7F5
100
AcDbEntity
  8
0
  6
CONTINUOUS
 62
     7
100
AcDbCircle
 10
-319.0162879815
 20
-292.1626104261
 30
0.0
 40
0.5409852754632835
100
AcDbArc
 50
0.7774636515
 51
90.3006125568
  0
ARC
  5
95D
330
7F5
100
AcDbEntity
  8
0
  6
CONTINUOUS
 62
     7
100
AcDbCircle
 10
-317.9293896917
 20
-310.0858513504
 30
0.0
 40
0.5460560369788625
100
AcDbArc
 50
181.0587090425
 51
261.7605351794
  0
ARC
  5
95E
330
7F5
100
AcDbEntity
  8
0
  6
CONTINUOUS
 62
     7
100
AcDbCircle
 10
-314.6728296215
 20
-310.6363602894
 30
0.0
 40
0.4069667583224002
100
AcDbArc
 50
261.3986348259
 51
1.4206093965
  0
ARC
  5
95F
330
7F5
100
AcDbEntity
  8
0
  6
CONTINUOUS
 62
     7
100
AcDbCircle
 10
-313.8617538049
 20
-291.7538468321
 30
0.0
 40
0.4043976205606616
100
AcDbArc
 50
93.3882882586
 51
181.6292005386
  0
ARC
  5
960
330
7F5
100
AcDbEntity
  8
0
  6
CONTINUOUS
 62
     7
100
AcDbCircle
 10
-311.9994008445
 20
-291.7581622132
 30
0.0
 40
0.5396962003127392
100
AcDbArc
 50
0.6998930286
 51
92.0745408278
  0
ARC
  5
961
330
7F5
100
AcDbEntity
  8
0
  6
CONTINUOUS
 62
     7
100
AcDbCircle
 10
-311.8665865813
 20
-316.6467679295
 30
0.0
 40
0.4069667583223434
100
AcDbArc
 50
261.3986348259
 51
1.4206093965
  0
ARC
  5
962
330
7F5
100
AcDbEntity
  8
0
  6
CONTINUOUS
 62
     7
100
AcDbCircle
 10
-395.1010732964
 20
-306.0199873633
 30
0.0
 40
0.5460560369790571
100
AcDbArc
 50
181.0587090425
 51
261.7605351794
  0
ARC
  5
963
330
7F5
100
AcDbEntity
  8
0
  6
CONTINUOUS
 62
     7
100
AcDbCircle
 10
41.5539896677
 20
20.046619954
 30
0.0
 40
0.5396962003127351
100
AcDbArc
 50
0.6998930286
 51
92.0745408278
  0
ARC
  5
964
330
7F5
100
AcDbEntity
  8
0
  6
CONTINUOUS
 62
     7
100
AcDbCircle
 10
39.6903568934
 20
20.050798182
 30
0.0
 40
0.4044609373248124
100
AcDbArc
 50
93.2061586267
 51
131.11569185
  0
ARC
  5
965
330
7F5
100
AcDbEntity
  8
0
  6
CONTINUOUS
 62
     7
100
AcDbCircle
 10
34.5371025306
 20
19.6421717411
 30
0.0
 40
0.5409852754633203
100
AcDbArc
 50
0.7774636515
 51
90.3006125568
  0
ARC
  5
966
330
7F5
100
AcDbEntity
  8
0
  6
CONTINUOUS
 62
     7
100
AcDbCircle
 10
32.6757123189
 20
19.7104458809
 30
0.0
 40
0.4064400317677856
100
AcDbArc
 50
91.1511148439
 51
131.0524042595
  0
ARC
  5
967
330
7F5
100
AcDbEntity
  8
0
  6
CONTINUOUS
 62
     7
100
AcDbCircle
 10
27.5203019154
 20
19.4805440196
 30
0.0
 40
0.542187832716451
100
AcDbArc
 50
0.8477425353
 51
88.544319397
  0
ARC
  5
968
330
7F5
100
AcDbEntity
  8
0
  6
CONTINUOUS
 62
     7
100
AcDbCircle
 10
25.6610840035
 20
19.6117064132
 30
0.0
 40
0.4085078171896475
100
AcDbArc
 50
89.1199275471
 51
130.9820019667
  0
ARC
  5
969
330
7F5
100
AcDbEntity
  8
0
  6
CONTINUOUS
 62
     7
100
AcDbCircle
 10
20.5035886427
 20
19.5581705283
 30
0.0
 40
0.5433028362671466
100
AcDbArc
 50
0.9110224767
 51
86.803149919
  0
ARC
  5
96A
330
7F5
100
AcDbEntity
  8
0
  6
CONTINUOUS
 62
     7
100
AcDbCircle
 10
41.6769188566
 20
-4.8390077751
 30
0.0
 40
0.4167874198664084
100
AcDbArc
 50
312.158037431
 51
0.9776572489
  0
ARC
  5
96B
330
7F5
100
AcDbEntity
  8
0
  6
CONTINUOUS
 62
     7
100
AcDbCircle
 10
18.6464677328
 20
19.7512530435
 30
0.0
 40
0.4106603270869149
100
AcDbArc
 50
87.1103972307
 51
130.9043629549
  0
ARC
  5
96C
330
7F5
100
AcDbEntity
  8
0
  6
CONTINUOUS
 62
     7
100
AcDbCircle
 10
13.4869637453
 20
19.8723486786
 30
0.0
 40
0.5443290699388866
100
AcDbArc
 50
0.967571428
 51
85.0747016202
  0
ARC
  5
96D
330
7F5
100
AcDbEntity
  8
0
  6
CONTINUOUS
 62
     7
100
AcDbCircle
 10
11.6318595182
 20
20.1266085413
 30
0.0
 40
0.4128938856238705
100
AcDbArc
 50
85.1204043305
 51
130.8193836632
  0
ARC
  5
96E
330
7F5
100
AcDbEntity
  8
0
  6
CONTINUOUS
 62
     7
100
AcDbCircle
 10
-11.7721326834
 20
22.9407408912
 30
0.0
 40
0.5472648939055023
100
AcDbArc
 50
1.1190151844
 51
78.9222940727
  0
ARC
  5
96F
330
7F5
100
AcDbEntity
  8
0
  6
CONTINUOUS
 62
     7
100
AcDbCircle
 10
-13.6218845086
 20
23.4169408729
 30
0.0
 40
0.4173222673541823
100
AcDbArc
 50
77.8005835493
 51
130.7375420953
  0
ARC
  5
970
330
7F5
100
AcDbEntity
  8
0
  6
CONTINUOUS
 62
     7
100
AcDbCircle
 10
-18.7883315733
 20
24.3307798608
 30
0.0
 40
0.5478616786333103
100
AcDbArc
 50
1.1474718343
 51
77.223183226
  0
ARC
  5
971
330
7F5
100
AcDbEntity
  8
0
  6
CONTINUOUS
 62
     7
100
AcDbCircle
 10
-20.6364959933
 20
24.8677908654
 30
0.0
 40
0.4196287047915854
100
AcDbArc
 50
75.8463085123
 51
130.645873414
  0
ARC
  5
972
330
7F5
100
AcDbEntity
  8
0
  6
CONTINUOUS
 62
     7
100
AcDbCircle
 10
-25.804432167
 20
25.956781781
 30
0.0
 40
0.5483591982438195
100
AcDbArc
 50
1.1703396784
 51
75.5242290318
  0
ARC
  5
973
330
7F5
100
AcDbEntity
  8
0
  6
CONTINUOUS
 62
     7
100
AcDbCircle
 10
-27.6511079958
 20
26.5550427438
 30
0.0
 40
0.4220017909688923
100
AcDbArc
 50
73.89926087
 51
130.5474948286
  0
ARC
  5
974
330
7F5
100
AcDbEntity
  8
0
  6
CONTINUOUS
 62
     7
100
AcDbCircle
 10
-10.6790093424
 20
7.5525617589
 30
0.0
 40
0.5460560369788866
100
AcDbArc
 50
181.0587090425
 51
261.7605351794
  0
ARC
  5
975
330
7F5
100
AcDbEntity
  8
0
  6
CONTINUOUS
 62
     7
100
AcDbCircle
 10
-32.8204318503
 20
27.8212244383
 30
0.0
 40
0.5487547991006818
100
AcDbArc
 50
1.1877716699
 51
73.8231623847
  0
ARC
  5
976
330
7F5
100
AcDbEntity
  8
0
  6
CONTINUOUS
 62
     7
100
AcDbCircle
 10
-34.6657232793
 20
28.4813976794
 30
0.0
 40
0.4244396921026252
100
AcDbArc
 50
71.9574085038
 51
130.4423171809
  0
ARC
  5
977
330
7F5
100
AcDbEntity
  8
0
  6
CONTINUOUS
 62
     7
100
AcDbCircle
 10
-39.8363276991
 20
29.9274353433
 30
0.0
 40
0.5490455330068699
100
AcDbArc
 50
1.199908125
 51
72.1176491638
  0
ARC
  5
978
330
7F5
100
AcDbEntity
  8
0
  6
CONTINUOUS
 62
     7
100
AcDbCircle
 10
-41.6803445574
 20
30.6504202365
 30
0.0
 40
0.4269407303226432
100
AcDbArc
 50
70.0186535691
 51
130.3302520125
  0
VIEWPORT
  5
98B
330
7F5
100
AcDbEntity
  8
0
100
AcDbViewport
 10
0.0
 20
0.0
 30
0.0
 40
205.6
 41
156.0
 68
     1
 69
     1
1001
ACAD
1000
MVIEW
1002
{
1070
    16
1010
0.0
1020
0.0
1030
0.0
1010
0.0
1020
0.0
1030
1.0
1040
0.0
1040
596.5052109039
1040
353.5524304769
1040
-192.8681346605
1040
50.0
1040
0.0
1040
0.0
1070
     0
1070
   100
1070
     0
1070
     3
1070
     0
1070
     0
1070
     0
1070
     0
1040
0.0
1040
0.0
1040
0.0
1040
10.0
1040
10.0
1040
10.0
1040
10.0
1070
     0
1002
{
1002
}
1002
}
  0
ENDBLK
  5
7F8
330
7F5
100
AcDbEntity
  8
0
100
AcDbBlockEnd
  0
ENDSEC
  0
SECTION
  2
ENTITIES
  0
LWPOLYLINE
  5
80
330
1F
100
AcDbEntity
  8
0
  6
CONTINUOUS
 62
     7
100
AcDbPolyline
 90
        9
 70
   128
 43
0.0
 10
677.4082963767
 20
-403.598503394
 10
677.4030273332
 20
-403.5313130944
 10
677.3873772529
 20
-403.4722074893
 10
677.3618126053
 20
-403.4229482928
 10
677.3270953758
 20
-403.3850037351
 10
677.2842603535
 20
-403.3595047995
 10
677.234584288
 20
-403.3472115127
 10
677.1795478347
 20
-403.3484902911
 10
677.1207914217
 20
-403.3633030191
  0
LWPOLYLINE
  5
88
330
1F
100
AcDbEntity
  8
0
  6
CONTINUOUS
 62
     7
100
AcDbPolyline
 90
        9
 70
   128
 43
0.0
 10
682.7115972356
 20
-401.5965893069
 10
682.7060708218
 20
-401.527865936
 10
682.6896643477
 20
-401.4676700895
 10
682.6628907146
 20
-401.4178836169
 10
682.6265869228
 20
-401.380062949
 10
682.5818879057
 20
-401.3553904398
 10
682.5301910494
 20
-401.3446374043
 10
682.4731125069
 20
-401.348140005
 10
682.4124366743
 20
-401.3657887432
  0
LWPOLYLINE
  5
90
330
1F
100
AcDbEntity
  8
0
  6
CONTINUOUS
 62
     7
100
AcDbPolyline
 90
        9
 70
   128
 43
0.0
 10
688.0148980945
 20
-399.3853062469
 10
688.0091096048
 20
-399.3150624873
 10
687.9919336777
 20
-399.2538004325
 10
687.9639327328
 20
-399.2035260865
 10
687.926023651
 20
-399.165885665
 10
687.8794477518
 20
-399.1421116899
 10
687.8257301461
 20
-399.1329826317
 10
687.7666297979
 20
-399.1387974181
 10
687.704081927
 20
-399.159365646
  0
LWPOLYLINE
  5
98
330
1F
100
AcDbEntity
  8
0
  6
CONTINUOUS
 62
     7
100
AcDbPolyline
 90
        9
 70
   128
 43
0.0
 10
693.3181989534
 20
-396.9675373682
 10
693.3121434629
 20
-396.8957840794
 10
693.2941844222
 20
-396.833478496
 10
693.2649370189
 20
-396.7827548974
 10
693.2254031236
 20
-396.7453508219
 10
693.1769369708
 20
-396.7225475471
 10
693.1211987701
 20
-396.7151261998
 10
693.0600978349
 20
-396.7233409985
 10
692.9957271796
 20
-396.746910545
  0
LWPOLYLINE
  5
A8
330
1F
100
AcDbEntity
  8
0
  6
CONTINUOUS
 62
     7
100
AcDbPolyline
 90
        9
 70
   128
 43
0.0
 10
717.7133829043
 20
-383.2295492391
 10
717.7060285634
 20
-383.1509441333
 10
717.684271499
 20
-383.0840982363
 10
717.649016858
 20
-383.0317925002
 10
717.6017313193
 20
-382.996202971
 10
717.5443820765
 20
-382.9788102598
 10
717.4793549977
 20
-382.9803379457
 10
717.4093553677
 20
-383.0007224732
 10
717.3372953416
 20
-383.0391157965
  0
LWPOLYLINE
  5
B0
330
1F
100
AcDbEntity
  8
0
  6
CONTINUOUS
 62
     7
100
AcDbPolyline
 90
        9
 70
   128
 43
0.0
 10
723.0166837632
 20
-379.6757871812
 10
723.0090298746
 20
-379.5957026271
 10
722.9863995986
 20
-379.5279202985
 10
722.9497727567
 20
-379.4753749624
 10
722.9007351789
 20
-379.4403416706
 10
722.8414100418
 20
-379.4243372572
 10
722.774365942
 20
-379.4280546642
 10
722.7025056832
 20
-379.4513329393
 10
722.6289405942
 20
-379.4931642046
  0
LWPOLYLINE
  5
B8
330
1F
100
AcDbEntity
  8
0
  6
CONTINUOUS
 62
     7
100
AcDbPolyline
 90
        9
 70
   128
 43
0.0
 10
728.3199846221
 20
-375.9171835831
 10
728.3120242785
 20
-375.8356196892
 10
728.2885017059
 20
-375.7669172065
 10
728.2504761376
 20
-375.7141698426
 10
728.1996598842
 20
-375.6797528378
 10
728.138341227
 20
-375.6652160071
 10
728.0692813761
 20
-375.6712139513
 10
727.9955901315
 20
-375.6974765799
 10
727.9205858468
 20
-375.7428212737
  0
LWPOLYLINE
  5
C0
330
1F
100
AcDbEntity
  8
0
  6
CONTINUOUS
 62
     7
100
AcDbPolyline
 90
        9
 70
   128
 43
0.0
 10
733.623285481
 20
-371.9513991026
 10
733.6150113618
 20
-371.8683543644
 10
733.5905762782
 20
-371.7987473118
 10
733.5511239263
 20
-371.7458359369
 10
733.4985008926
 20
-371.7120967822
 10
733.4351702238
 20
-371.6991090253
 10
733.3640961426
 20
-371.7074805645
 10
733.288605306
 20
-371.7368195659
 10
733.2122310995
 20
-371.7857528031
  0
LWPOLYLINE
  5
C8
330
1F
100
AcDbEntity
  8
0
  6
CONTINUOUS
 62
     7
100
AcDbPolyline
 90
        9
 70
   128
 43
0.0
 10
738.9265863399
 20
-367.7753464378
 10
738.9179906693
 20
-367.6908176954
 10
738.8926216173
 20
-367.6203210171
 10
738.8517127402
 20
-367.5672842653
 10
738.79725321
 20
-367.5342863234
 10
738.7318910916
 20
-367.5229316982
 10
738.6588045824
 20
-367.5337725023
 10
738.5815474743
 20
-367.5662816074
 10
738.5038763521
 20
-367.618878276
  0
LINE
  5
133
330
1F
100
AcDbEntity
  8
0
  6
CONTINUOUS
 62
     7
100
AcDbLine
 10
677.3046763758
 20
-403.3695038803
 30
0.0
 11
-29.8021048107
 21
4.7337737243
 31
0.0
  0
LINE
  5
134
330
1F
100
AcDbEntity
  8
0
  6
CONTINUOUS
 62
     7
100
AcDbLine
 10
682.6079772347
 20
-401.3675897932
 30
0.0
 11
-24.4988039518
 21
6.7356878113
 31
0.0
  0
LINE
  5
135
330
1F
100
AcDbEntity
  8
0
  6
CONTINUOUS
 62
     7
100
AcDbLine
 10
687.9112780936
 20
-399.1563067332
 30
0.0
 11
-19.1955030929
 21
8.9469708714
 31
0.0
  0
LINE
  5
136
330
1F
100
AcDbEntity
  8
0
  6
CONTINUOUS
 62
     7
100
AcDbLine
 10
-31.7161851525
 20
-18.1853262283
 30
0.0
 11
675.390596034
 21
-426.2886038329
 31
0.0
  0
LINE
  5
137
330
1F
100
AcDbEntity
  8
0
  6
CONTINUOUS
 62
     7
100
AcDbLine
 10
693.2145789525
 20
-396.7385378544
 30
0.0
 11
-13.892202234
 21
11.3647397501
 31
0.0
  0
LINE
  5
138
330
1F
100
AcDbEntity
  8
0
  6
CONTINUOUS
 62
     7
100
AcDbLine
 10
698.5178798114
 20
-394.116430357
 30
0.0
 11
-8.5889013751
 21
13.9868472475
 31
0.0
  0
LINE
  5
139
330
1F
100
AcDbEntity
  8
0
  6
CONTINUOUS
 62
     7
100
AcDbLine
 10
717.6097629035
 20
-383.0005497254
 30
0.0
 11
10.5029817169
 21
25.1027278791
 31
0.0
  0
LINE
  5
13A
330
1F
100
AcDbEntity
  8
0
  6
CONTINUOUS
 62
     7
100
AcDbLine
 10
722.9130637624
 20
-379.4467876675
 30
0.0
 11
15.8062825758
 21
28.656489937
 31
0.0
  0
LINE
  5
13B
330
1F
100
AcDbEntity
  8
0
  6
CONTINUOUS
 62
     7
100
AcDbLine
 10
728.2163646213
 20
-375.6881840693
 30
0.0
 11
21.1095834347
 21
32.4150935352
 31
0.0
  0
LINE
  5
13C
330
1F
100
AcDbEntity
  8
0
  6
CONTINUOUS
 62
     7
100
AcDbLine
 10
733.5196654802
 20
-371.7223995889
 30
0.0
 11
26.4128842936
 21
36.3808780157
 31
0.0
  0
LINE
  5
13D
330
1F
100
AcDbEntity
  8
0
  6
CONTINUOUS
 62
     7
100
AcDbLine
 10
738.8229663391
 20
-367.5463469241
 30
0.0
 11
31.7161851525
 21
40.5569306805
 31
0.0
  0
LINE
  5
13E
330
1F
100
AcDbEntity
  8
0
  6
CONTINUOUS
 62
     7
100
AcDbLine
 10
675.709686021
 20
-403.8602431879
 30
0.0
 11
677.1207914217
 21
-403.3633030191
 31
0.0
  0
LINE
  5
13F
330
1F
100
AcDbEntity
  8
0
  6
CONTINUOUS
 62
     7
100
AcDbLine
 10
677.4082963767
 20
-403.598503394
 30
0.0
 11
677.4082963767
 21
-419.9354451554
 31
0.0
  0
LINE
  5
140
330
1F
100
AcDbEntity
  8
0
  6
CONTINUOUS
 62
     7
100
AcDbLine
 10
677.7618497673
 20
-420.1397142941
 30
0.0
 11
680.2367235015
 21
-418.7113528225
 31
0.0
  0
LINE
  5
141
330
1F
100
AcDbEntity
  8
0
  6
CONTINUOUS
 62
     7
100
AcDbLine
 10
680.5902768921
 20
-418.0989804061
 30
0.0
 11
680.5902768921
 21
-402.5591449229
 31
0.0
  0
LINE
  5
142
330
1F
100
AcDbEntity
  8
0
  6
CONTINUOUS
 62
     7
100
AcDbLine
 10
681.0013312736
 20
-401.9190225051
 30
0.0
 11
682.4124366743
 21
-401.3657887432
 31
0.0
  0
LINE
  5
143
330
1F
100
AcDbEntity
  8
0
  6
CONTINUOUS
 62
     7
100
AcDbLine
 10
682.7115972356
 20
-401.5965893069
 30
0.0
 11
682.7115972356
 21
-416.8746705733
 31
0.0
  0
LINE
  5
144
330
1F
100
AcDbEntity
  8
0
  6
CONTINUOUS
 62
     7
100
AcDbLine
 10
683.0651506262
 20
-417.0789397121
 30
0.0
 11
685.5400243604
 21
-415.6505782405
 31
0.0
  0
LINE
  5
145
330
1F
100
AcDbEntity
  8
0
  6
CONTINUOUS
 62
     7
100
AcDbLine
 10
685.8935777509
 20
-415.0382058241
 30
0.0
 11
685.8935777509
 21
-400.4033802393
 31
0.0
  0
LINE
  5
146
330
1F
100
AcDbEntity
  8
0
  6
CONTINUOUS
 62
     7
100
AcDbLine
 10
686.2929765263
 20
-399.7679957658
 30
0.0
 11
687.704081927
 21
-399.159365646
 31
0.0
  0
LINE
  5
147
330
1F
100
AcDbEntity
  8
0
  6
CONTINUOUS
 62
     7
100
AcDbLine
 10
688.0148980945
 20
-399.3853062469
 30
0.0
 11
688.0148980945
 21
-413.8138959913
 31
0.0
  0
LINE
  5
148
330
1F
100
AcDbEntity
  8
0
  6
CONTINUOUS
 62
     7
100
AcDbLine
 10
688.3684514851
 20
-414.0181651301
 30
0.0
 11
690.8433252193
 21
-412.5898036585
 31
0.0
  0
LINE
  5
149
330
1F
100
AcDbEntity
  8
0
  6
CONTINUOUS
 62
     7
100
AcDbLine
 10
691.1968786098
 20
-411.9774312421
 30
0.0
 11
691.1968786098
 21
-398.0404346734
 31
0.0
  0
LINE
  5
14A
330
1F
100
AcDbEntity
  8
0
  6
CONTINUOUS
 62
     7
100
AcDbLine
 10
691.5846217789
 20
-397.4102434869
 30
0.0
 11
692.9957271796
 21
-396.746910545
 31
0.0
  0
LINE
  5
14B
330
1F
100
AcDbEntity
  8
0
  6
CONTINUOUS
 62
     7
100
AcDbLine
 10
693.3181989534
 20
-396.9675373682
 30
0.0
 11
693.3181989534
 21
-410.7531214093
 31
0.0
  0
LINE
  5
14C
330
1F
100
AcDbEntity
  8
0
  6
CONTINUOUS
 62
     7
100
AcDbLine
 10
693.671752344
 20
-410.957390548
 30
0.0
 11
696.1466260782
 21
-409.5290290764
 31
0.0
  0
LINE
  5
14D
330
1F
100
AcDbEntity
  8
0
  6
CONTINUOUS
 62
     7
100
AcDbLine
 10
696.5001794687
 20
-408.91665666
 30
0.0
 11
696.5001794687
 21
-395.4726475673
 31
0.0
  0
LINE
  5
14E
330
1F
100
AcDbEntity
  8
0
  6
CONTINUOUS
 62
     7
100
AcDbLine
 10
696.8762670315
 20
-394.8480998689
 30
0.0
 11
698.2873724322
 21
-394.1305659212
 31
0.0
  0
LINE
  5
14F
330
1F
100
AcDbEntity
  8
0
  6
CONTINUOUS
 62
     7
100
AcDbLine
 10
698.6214998123
 20
-394.3454298708
 30
0.0
 11
698.6214998123
 21
-407.6923468272
 31
0.0
  0
LINE
  5
150
330
1F
100
AcDbEntity
  8
0
  6
CONTINUOUS
 62
     7
100
AcDbLine
 10
698.9750532029
 20
-407.896615966
 30
0.0
 11
715.2385091702
 21
-398.5102405811
 31
0.0
  0
LINE
  5
151
330
1F
100
AcDbEntity
  8
0
  6
CONTINUOUS
 62
     7
100
AcDbLine
 10
715.5920625608
 20
-397.8978681647
 30
0.0
 11
715.5920625608
 21
-384.5509512083
 31
0.0
  0
LINE
  5
152
330
1F
100
AcDbEntity
  8
0
  6
CONTINUOUS
 62
     7
100
AcDbLine
 10
715.9261899409
 20
-383.9504072381
 30
0.0
 11
717.3372953416
 21
-383.0391157965
 31
0.0
  0
LINE
  5
153
330
1F
100
AcDbEntity
  8
0
  6
CONTINUOUS
 62
     7
100
AcDbLine
 10
717.7133829043
 20
-383.2295492391
 30
0.0
 11
717.7133829043
 21
-396.6735583319
 31
0.0
  0
LINE
  5
154
330
1F
100
AcDbEntity
  8
0
  6
CONTINUOUS
 62
     7
100
AcDbLine
 10
718.0669362949
 20
-396.8778274707
 30
0.0
 11
720.5418100291
 21
-395.4494659991
 31
0.0
  0
LINE
  5
155
330
1F
100
AcDbEntity
  8
0
  6
CONTINUOUS
 62
     7
100
AcDbLine
 10
720.8953634197
 20
-394.8370935827
 30
0.0
 11
720.8953634197
 21
-381.0515095416
 31
0.0
  0
LINE
  5
156
330
1F
100
AcDbEntity
  8
0
  6
CONTINUOUS
 62
     7
100
AcDbLine
 10
721.2178351935
 20
-380.458656652
 30
0.0
 11
722.6289405942
 21
-379.4931642046
 31
0.0
  0
LINE
  5
157
330
1F
100
AcDbEntity
  8
0
  6
CONTINUOUS
 62
     7
100
AcDbLine
 10
723.0166837632
 20
-379.6757871812
 30
0.0
 11
723.0166837632
 21
-393.6127837499
 31
0.0
  0
LINE
  5
158
330
1F
100
AcDbEntity
  8
0
  6
CONTINUOUS
 62
     7
100
AcDbLine
 10
723.3702371538
 20
-393.8170528887
 30
0.0
 11
725.845110888
 21
-392.388691417
 31
0.0
  0
LINE
  5
159
330
1F
100
AcDbEntity
  8
0
  6
CONTINUOUS
 62
     7
100
AcDbLine
 10
726.1986642786
 20
-391.7763190007
 30
0.0
 11
726.1986642786
 21
-377.3477292562
 31
0.0
  0
LINE
  5
15A
330
1F
100
AcDbEntity
  8
0
  6
CONTINUOUS
 62
     7
100
AcDbLine
 10
726.5094804461
 20
-376.7630165431
 30
0.0
 11
727.9205858468
 21
-375.7428212737
 31
0.0
  0
LINE
  5
15B
330
1F
100
AcDbEntity
  8
0
  6
CONTINUOUS
 62
     7
100
AcDbLine
 10
728.3199846221
 20
-375.9171835831
 30
0.0
 11
728.3199846221
 21
-390.5520091678
 31
0.0
  0
LINE
  5
15C
330
1F
100
AcDbEntity
  8
0
  6
CONTINUOUS
 62
     7
100
AcDbLine
 10
728.6735380127
 20
-390.7562783066
 30
0.0
 11
731.1484117469
 21
-389.327916835
 31
0.0
  0
LINE
  5
15D
330
1F
100
AcDbEntity
  8
0
  6
CONTINUOUS
 62
     7
100
AcDbLine
 10
731.5019651375
 20
-388.7155444186
 30
0.0
 11
731.5019651375
 21
-373.4374631522
 31
0.0
  0
LINE
  5
15E
330
1F
100
AcDbEntity
  8
0
  6
CONTINUOUS
 62
     7
100
AcDbLine
 10
731.8011256988
 20
-372.8613444305
 30
0.0
 11
733.2122310995
 21
-371.7857528031
 31
0.0
  0
LINE
  5
15F
330
1F
100
AcDbEntity
  8
0
  6
CONTINUOUS
 62
     7
100
AcDbLine
 10
733.623285481
 20
-371.9513991026
 30
0.0
 11
733.623285481
 21
-387.4912345858
 31
0.0
  0
LINE
  5
160
330
1F
100
AcDbEntity
  8
0
  6
CONTINUOUS
 62
     7
100
AcDbLine
 10
733.9768388716
 20
-387.6955037246
 30
0.0
 11
736.4517126058
 21
-386.267142253
 31
0.0
  0
LINE
  5
161
330
1F
100
AcDbEntity
  8
0
  6
CONTINUOUS
 62
     7
100
AcDbLine
 10
736.8052659964
 20
-385.6547698366
 30
0.0
 11
736.8052659964
 21
-369.3178280752
 31
0.0
  0
LINE
  5
162
330
1F
100
AcDbEntity
  8
0
  6
CONTINUOUS
 62
     7
100
AcDbLine
 10
737.0927709514
 20
-368.7507634966
 30
0.0
 11
738.5038763521
 21
-367.618878276
 31
0.0
  0
LINE
  5
163
330
1F
100
AcDbEntity
  8
0
  6
CONTINUOUS
 62
     7
100
AcDbLine
 10
738.9265863399
 20
-367.7753464378
 30
0.0
 11
738.9265863399
 21
-389.3303093347
 31
0.0
  0
LINE
  5
164
330
1F
100
AcDbEntity
  8
0
  6
CONTINUOUS
 62
     7
100
AcDbLine
 10
738.5730329493
 20
-389.9426817511
 30
0.0
 11
675.6405294237
 21
-426.2638734579
 31
0.0
  0
LINE
  5
165
330
1F
100
AcDbEntity
  8
0
  6
CONTINUOUS
 62
     7
100
AcDbLine
 10
675.2869760332
 20
-426.0596043192
 30
0.0
 11
675.2869760332
 21
-404.5046414222
 31
0.0
  0
LINE
  5
166
330
1F
100
AcDbEntity
  8
0
  6
CONTINUOUS
 62
     7
100
AcDbLine
 10
675.709686021
 20
-403.8602431879
 30
0.0
 11
-31.3970951655
 21
4.2430344167
 31
0.0
  0
LINE
  5
167
330
1F
100
AcDbEntity
  8
0
  6
CONTINUOUS
 62
     7
100
AcDbLine
 10
675.2869760332
 20
-404.5046414222
 30
0.0
 11
-31.8198051534
 21
3.5986361823
 31
0.0
  0
LINE
  5
168
330
1F
100
AcDbEntity
  8
0
  6
CONTINUOUS
 62
     7
100
AcDbLine
 10
675.2869760332
 20
-426.0596043192
 30
0.0
 11
-31.8198051534
 21
-17.9563267146
 31
0.0
  0
LINE
  5
169
330
1F
100
AcDbEntity
  8
0
  6
CONTINUOUS
 62
     7
100
AcDbLine
 10
-31.8198051534
 20
-17.9563267146
 30
0.0
 11
-31.8198051534
 21
3.5986361823
 31
0.0
  0
LINE
  5
16A
330
1F
100
AcDbEntity
  8
0
  6
CONTINUOUS
 62
     7
100
AcDbLine
 10
677.1207914217
 20
-403.3633030191
 30
0.0
 11
-29.9859897648
 21
4.7399745854
 31
0.0
  0
LINE
  5
16B
330
1F
100
AcDbEntity
  8
0
  6
CONTINUOUS
 62
     7
100
AcDbLine
 10
-31.3970951655
 20
4.2430344167
 30
0.0
 11
-29.9859897648
 21
4.7399745854
 31
0.0
  0
LINE
  5
16C
330
1F
100
AcDbEntity
  8
0
  6
CONTINUOUS
 62
     7
100
AcDbLine
 10
681.0013312736
 20
-401.9190225051
 30
0.0
 11
-26.1054499129
 21
6.1842550995
 31
0.0
  0
LINE
  5
16D
330
1F
100
AcDbEntity
  8
0
  6
CONTINUOUS
 62
     7
100
AcDbLine
 10
680.5902768921
 20
-402.5591449229
 30
0.0
 11
-26.5165042945
 21
5.5441326816
 31
0.0
  0
LINE
  5
16E
330
1F
100
AcDbEntity
  8
0
  6
CONTINUOUS
 62
     7
100
AcDbLine
 10
-26.5165042945
 20
2.8375051899
 30
0.0
 11
-26.5165042945
 21
5.5441326816
 31
0.0
  0
LINE
  5
16F
330
1F
100
AcDbEntity
  8
0
  6
CONTINUOUS
 62
     7
100
AcDbLine
 10
682.4124366743
 20
-401.3657887432
 30
0.0
 11
-24.6943445122
 21
6.7374888613
 31
0.0
  0
LINE
  5
170
330
1F
100
AcDbEntity
  8
0
  6
CONTINUOUS
 62
     7
100
AcDbLine
 10
-26.1054499129
 20
6.1842550995
 30
0.0
 11
-24.6943445122
 21
6.7374888613
 31
0.0
  0
LINE
  5
171
330
1F
100
AcDbEntity
  8
0
  6
CONTINUOUS
 62
     7
100
AcDbLine
 10
686.2929765263
 20
-399.7679957658
 30
0.0
 11
-20.8138046603
 21
8.3352818387
 31
0.0
  0
LINE
  5
172
330
1F
100
AcDbEntity
  8
0
  6
CONTINUOUS
 62
     7
100
AcDbLine
 10
685.8935777509
 20
-400.4033802393
 30
0.0
 11
-21.2132034356
 21
7.6998973652
 31
0.0
  0
LINE
  5
173
330
1F
100
AcDbEntity
  8
0
  6
CONTINUOUS
 62
     7
100
AcDbLine
 10
-21.2132034356
 20
4.839419277
 30
0.0
 11
-21.2132034356
 21
7.6998973652
 31
0.0
  0
LINE
  5
174
330
1F
100
AcDbEntity
  8
0
  6
CONTINUOUS
 62
     7
100
AcDbLine
 10
687.704081927
 20
-399.159365646
 30
0.0
 11
-19.4026992596
 21
8.9439119586
 31
0.0
  0
LINE
  5
175
330
1F
100
AcDbEntity
  8
0
  6
CONTINUOUS
 62
     7
100
AcDbLine
 10
-20.8138046603
 20
8.3352818387
 30
0.0
 11
-19.4026992596
 21
8.9439119586
 31
0.0
  0
LINE
  5
176
330
1F
100
AcDbEntity
  8
0
  6
CONTINUOUS
 62
     7
100
AcDbLine
 10
691.5846217789
 20
-397.4102434869
 30
0.0
 11
-15.5221594077
 21
10.6930341177
 31
0.0
  0
LINE
  5
177
330
1F
100
AcDbEntity
  8
0
  6
CONTINUOUS
 62
     7
100
AcDbLine
 10
691.1968786098
 20
-398.0404346734
 30
0.0
 11
-15.9099025767
 21
10.0628429311
 31
0.0
  0
LINE
  5
178
330
1F
100
AcDbEntity
  8
0
  6
CONTINUOUS
 62
     7
100
AcDbLine
 10
-15.9099025767
 20
7.050702337
 30
0.0
 11
-15.9099025767
 21
10.0628429311
 31
0.0
  0
LINE
  5
179
330
1F
100
AcDbEntity
  8
0
  6
CONTINUOUS
 62
     7
100
AcDbLine
 10
692.9957271796
 20
-396.746910545
 30
0.0
 11
-14.111054007
 21
11.3563670595
 31
0.0
  0
LINE
  5
17A
330
1F
100
AcDbEntity
  8
0
  6
CONTINUOUS
 62
     7
100
AcDbLine
 10
-15.5221594077
 20
10.6930341177
 30
0.0
 11
-14.111054007
 21
11.3563670595
 31
0.0
  0
LINE
  5
17B
330
1F
100
AcDbEntity
  8
0
  6
CONTINUOUS
 62
     7
100
AcDbLine
 10
696.8762670315
 20
-394.8480998689
 30
0.0
 11
-10.2305141551
 21
13.2551777357
 31
0.0
  0
LINE
  5
17C
330
1F
100
AcDbEntity
  8
0
  6
CONTINUOUS
 62
     7
100
AcDbLine
 10
696.5001794687
 20
-395.4726475673
 30
0.0
 11
-10.6066017178
 21
12.6306300373
 31
0.0
  0
LINE
  5
17D
330
1F
100
AcDbEntity
  8
0
  6
CONTINUOUS
 62
     7
100
AcDbLine
 10
-10.6066017178
 20
9.4684712158
 30
0.0
 11
-10.6066017178
 21
12.6306300373
 31
0.0
  0
LINE
  5
17E
330
1F
100
AcDbEntity
  8
0
  6
CONTINUOUS
 62
     7
100
AcDbLine
 10
698.2873724322
 20
-394.1305659212
 30
0.0
 11
-8.8194087544
 21
13.9727116833
 31
0.0
  0
LINE
  5
17F
330
1F
100
AcDbEntity
  8
0
  6
CONTINUOUS
 62
     7
100
AcDbLine
 10
-10.2305141551
 20
13.2551777357
 30
0.0
 11
-8.8194087544
 21
13.9727116833
 31
0.0
  0
LINE
  5
180
330
1F
100
AcDbEntity
  8
0
  6
CONTINUOUS
 62
     7
100
AcDbLine
 10
715.2385091702
 20
-398.5102405811
 30
0.0
 11
8.1317279836
 21
9.5930370234
 31
0.0
  0
LINE
  5
181
330
1F
100
AcDbEntity
  8
0
  6
CONTINUOUS
 62
     7
100
AcDbLine
 10
3.5779166763
 20
6.9648267311
 30
0.0
 11
8.1317279836
 21
9.5930370234
 31
0.0
  0
LINE
  5
182
330
1F
100
AcDbEntity
  8
0
  6
CONTINUOUS
 62
     7
100
AcDbLine
 10
715.9261899409
 20
-383.9504072381
 30
0.0
 11
8.8194087544
 21
24.1528703664
 31
0.0
  0
LINE
  5
183
330
1F
100
AcDbEntity
  8
0
  6
CONTINUOUS
 62
     7
100
AcDbLine
 10
715.5920625608
 20
-384.5509512083
 30
0.0
 11
8.4852813742
 21
23.5523263963
 31
0.0
  0
LINE
  5
184
330
1F
100
AcDbEntity
  8
0
  6
CONTINUOUS
 62
     7
100
AcDbLine
 10
717.3372953416
 20
-383.0391157965
 30
0.0
 11
10.2305141551
 21
25.0641618081
 31
0.0
  0
LINE
  5
185
330
1F
100
AcDbEntity
  8
0
  6
CONTINUOUS
 62
     7
100
AcDbLine
 10
8.8194087544
 20
24.1528703664
 30
0.0
 11
10.2305141551
 21
25.0641618081
 31
0.0
  0
LINE
  5
186
330
1F
100
AcDbEntity
  8
0
  6
CONTINUOUS
 62
     7
100
AcDbLine
 10
715.5920625608
 20
-397.8978681647
 30
0.0
 11
8.4852813742
 21
10.2054094398
 31
0.0
  0
LINE
  5
187
330
1F
100
AcDbEntity
  8
0
  6
CONTINUOUS
 62
     7
100
AcDbLine
 10
8.4852813742
 20
10.2054094398
 30
0.0
 11
8.4852813742
 21
23.5523263963
 31
0.0
  0
LINE
  5
188
330
1F
100
AcDbEntity
  8
0
  6
CONTINUOUS
 62
     7
100
AcDbLine
 10
721.2178351935
 20
-380.458656652
 30
0.0
 11
14.111054007
 21
27.6446209525
 31
0.0
  0
LINE
  5
189
330
1F
100
AcDbEntity
  8
0
  6
CONTINUOUS
 62
     7
100
AcDbLine
 10
720.8953634197
 20
-381.0515095416
 30
0.0
 11
13.7885822331
 21
27.0517680629
 31
0.0
  0
LINE
  5
18A
330
1F
100
AcDbEntity
  8
0
  6
CONTINUOUS
 62
     7
100
AcDbLine
 10
722.6289405942
 20
-379.4931642046
 30
0.0
 11
15.5221594077
 21
28.6101133999
 31
0.0
  0
LINE
  5
18B
330
1F
100
AcDbEntity
  8
0
  6
CONTINUOUS
 62
     7
100
AcDbLine
 10
14.111054007
 20
27.6446209525
 30
0.0
 11
15.5221594077
 21
28.6101133999
 31
0.0
  0
LINE
  5
18C
330
1F
100
AcDbEntity
  8
0
  6
CONTINUOUS
 62
     7
100
AcDbLine
 10
13.7885822331
 20
23.2064593448
 30
0.0
 11
13.7885822331
 21
27.0517680629
 31
0.0
  0
LINE
  5
18D
330
1F
100
AcDbEntity
  8
0
  6
CONTINUOUS
 62
     7
100
AcDbLine
 10
726.5094804461
 20
-376.7630165431
 30
0.0
 11
19.4026992596
 21
31.3402610614
 31
0.0
  0
LINE
  5
18E
330
1F
100
AcDbEntity
  8
0
  6
CONTINUOUS
 62
     7
100
AcDbLine
 10
726.1986642786
 20
-377.3477292562
 30
0.0
 11
19.091883092
 21
30.7555483483
 31
0.0
  0
LINE
  5
18F
330
1F
100
AcDbEntity
  8
0
  6
CONTINUOUS
 62
     7
100
AcDbLine
 10
727.9205858468
 20
-375.7428212737
 30
0.0
 11
20.8138046603
 21
32.3604563308
 31
0.0
  0
LINE
  5
190
330
1F
100
AcDbEntity
  8
0
  6
CONTINUOUS
 62
     7
100
AcDbLine
 10
19.4026992596
 20
31.3402610614
 30
0.0
 11
20.8138046603
 21
32.3604563308
 31
0.0
  0
LINE
  5
191
330
1F
100
AcDbEntity
  8
0
  6
CONTINUOUS
 62
     7
100
AcDbLine
 10
19.091883092
 20
26.7602214027
 30
0.0
 11
19.091883092
 21
30.7555483483
 31
0.0
  0
LINE
  5
192
330
1F
100
AcDbEntity
  8
0
  6
CONTINUOUS
 62
     7
100
AcDbLine
 10
731.8011256988
 20
-372.8613444305
 30
0.0
 11
24.6943445122
 21
35.241933174
 31
0.0
  0
LINE
  5
193
330
1F
100
AcDbEntity
  8
0
  6
CONTINUOUS
 62
     7
100
AcDbLine
 10
731.5019651375
 20
-373.4374631522
 30
0.0
 11
24.3951839509
 21
34.6658144523
 31
0.0
  0
LINE
  5
194
330
1F
100
AcDbEntity
  8
0
  6
CONTINUOUS
 62
     7
100
AcDbLine
 10
733.2122310995
 20
-371.7857528031
 30
0.0
 11
26.1054499129
 21
36.3175248015
 31
0.0
  0
LINE
  5
195
330
1F
100
AcDbEntity
  8
0
  6
CONTINUOUS
 62
     7
100
AcDbLine
 10
24.6943445122
 20
35.241933174
 30
0.0
 11
26.1054499129
 21
36.3175248015
 31
0.0
  0
LINE
  5
196
330
1F
100
AcDbEntity
  8
0
  6
CONTINUOUS
 62
     7
100
AcDbLine
 10
24.3951839509
 20
30.5188250009
 30
0.0
 11
24.3951839509
 21
34.6658144523
 31
0.0
  0
LINE
  5
197
330
1F
100
AcDbEntity
  8
0
  6
CONTINUOUS
 62
     7
100
AcDbLine
 10
737.0927709514
 20
-368.7507634966
 30
0.0
 11
29.9859897648
 21
39.352514108
 31
0.0
  0
LINE
  5
198
330
1F
100
AcDbEntity
  8
0
  6
CONTINUOUS
 62
     7
100
AcDbLine
 10
736.8052659964
 20
-369.3178280752
 30
0.0
 11
29.6984848098
 21
38.7854495293
 31
0.0
  0
LINE
  5
199
330
1F
100
AcDbEntity
  8
0
  6
CONTINUOUS
 62
     7
100
AcDbLine
 10
738.5038763521
 20
-367.618878276
 30
0.0
 11
31.3970951655
 21
40.4843993285
 31
0.0
  0
LINE
  5
19A
330
1F
100
AcDbEntity
  8
0
  6
CONTINUOUS
 62
     7
100
AcDbLine
 10
29.9859897648
 20
39.352514108
 30
0.0
 11
31.3970951655
 21
40.4843993285
 31
0.0
  0
LINE
  5
19B
330
1F
100
AcDbEntity
  8
0
  6
CONTINUOUS
 62
     7
100
AcDbLine
 10
29.6984848098
 20
34.4846094814
 30
0.0
 11
29.6984848098
 21
38.7854495293
 31
0.0
  0
LINE
  5
19C
330
1F
100
AcDbEntity
  8
0
  6
CONTINUOUS
 62
     8
100
AcDbLine
 10
680.5902768921
 20
-418.0989804061
 30
0.0
 11
677.4082963767
 21
-416.2625156569
 31
0.0
  0
LINE
  5
19D
330
1F
100
AcDbEntity
  8
0
  6
CONTINUOUS
 62
     8
100
AcDbLine
 10
685.8935777509
 20
-415.0382058241
 30
0.0
 11
682.7115972356
 21
-413.2017410749
 31
0.0
  0
LINE
  5
19E
330
1F
100
AcDbEntity
  8
0
  6
CONTINUOUS
 62
     8
100
AcDbLine
 10
677.7618497673
 20
-420.1397142941
 30
0.0
 11
677.4082964269
 21
-419.9356626843
 31
0.0
  0
LINE
  5
19F
330
1F
100
AcDbEntity
  8
0
  6
CONTINUOUS
 62
     8
100
AcDbLine
 10
680.2367235015
 20
-418.7113528225
 30
0.0
 11
677.4082963767
 21
-417.0789397121
 31
0.0
  0
LINE
  5
1A0
330
1F
100
AcDbEntity
  8
0
  6
CONTINUOUS
 62
     8
100
AcDbLine
 10
691.1968786098
 20
-411.9774312421
 30
0.0
 11
688.0148980945
 21
-410.1409664929
 31
0.0
  0
LINE
  5
1A1
330
1F
100
AcDbEntity
  8
0
  6
CONTINUOUS
 62
     8
100
AcDbLine
 10
683.0651506262
 20
-417.0789397121
 30
0.0
 11
682.7115972858
 21
-416.8748881023
 31
0.0
  0
LINE
  5
1A2
330
1F
100
AcDbEntity
  8
0
  6
CONTINUOUS
 62
     8
100
AcDbLine
 10
685.5400243604
 20
-415.6505782405
 30
0.0
 11
682.7115972356
 21
-414.0181651301
 31
0.0
  0
LINE
  5
1A3
330
1F
100
AcDbEntity
  8
0
  6
CONTINUOUS
 62
     8
100
AcDbLine
 10
696.5001794687
 20
-408.91665666
 30
0.0
 11
693.3181989534
 21
-407.0801919108
 31
0.0
  0
LINE
  5
1A4
330
1F
100
AcDbEntity
  8
0
  6
CONTINUOUS
 62
     8
100
AcDbLine
 10
688.3684514851
 20
-414.0181651301
 30
0.0
 11
688.0148981447
 21
-413.8141135202
 31
0.0
  0
LINE
  5
1A5
330
1F
100
AcDbEntity
  8
0
  6
CONTINUOUS
 62
     8
100
AcDbLine
 10
690.8433252193
 20
-412.5898036585
 30
0.0
 11
688.0148980945
 21
-410.957390548
 31
0.0
  0
LINE
  5
1A6
330
1F
100
AcDbEntity
  8
0
  6
CONTINUOUS
 62
     8
100
AcDbLine
 10
693.671752344
 20
-410.957390548
 30
0.0
 11
693.3181990036
 21
-410.7533389382
 31
0.0
  0
LINE
  5
1A7
330
1F
100
AcDbEntity
  8
0
  6
CONTINUOUS
 62
     8
100
AcDbLine
 10
696.1466260782
 20
-409.5290290764
 30
0.0
 11
693.3181989534
 21
-407.896615966
 31
0.0
  0
LINE
  5
1A8
330
1F
100
AcDbEntity
  8
0
  6
CONTINUOUS
 62
     8
100
AcDbLine
 10
698.9750532029
 20
-407.896615966
 30
0.0
 11
698.6214998625
 21
-407.6925643562
 31
0.0
  0
LINE
  5
1A9
330
1F
100
AcDbEntity
  8
0
  6
CONTINUOUS
 62
     8
100
AcDbLine
 10
720.8953634197
 20
-394.8370935827
 30
0.0
 11
717.7133829043
 21
-393.0006288335
 31
0.0
  0
LINE
  5
1AA
330
1F
100
AcDbEntity
  8
0
  6
CONTINUOUS
 62
     8
100
AcDbLine
 10
726.1986642786
 20
-391.7763190007
 30
0.0
 11
723.0166837632
 21
-389.9398542514
 31
0.0
  0
LINE
  5
1AB
330
1F
100
AcDbEntity
  8
0
  6
CONTINUOUS
 62
     8
100
AcDbLine
 10
718.0669362949
 20
-396.8778274707
 30
0.0
 11
717.7133829545
 21
-396.6737758608
 31
0.0
  0
LINE
  5
1AC
330
1F
100
AcDbEntity
  8
0
  6
CONTINUOUS
 62
     8
100
AcDbLine
 10
731.5019651375
 20
-388.7155444186
 30
0.0
 11
728.3199846221
 21
-386.8790796694
 31
0.0
  0
LINE
  5
1AD
330
1F
100
AcDbEntity
  8
0
  6
CONTINUOUS
 62
     8
100
AcDbLine
 10
720.5418100291
 20
-395.4494659991
 30
0.0
 11
717.7133829043
 21
-393.8170528887
 31
0.0
  0
LINE
  5
1AE
330
1F
100
AcDbEntity
  8
0
  6
CONTINUOUS
 62
     8
100
AcDbLine
 10
736.8052659964
 20
-385.6547698366
 30
0.0
 11
733.623285481
 21
-383.8183050874
 31
0.0
  0
LINE
  5
1AF
330
1F
100
AcDbEntity
  8
0
  6
CONTINUOUS
 62
     8
100
AcDbLine
 10
723.3702371538
 20
-393.8170528887
 30
0.0
 11
723.0166838134
 21
-393.6130012788
 31
0.0
  0
LINE
  5
1B0
330
1F
100
AcDbEntity
  8
0
  6
CONTINUOUS
 62
     8
100
AcDbLine
 10
725.845110888
 20
-392.388691417
 30
0.0
 11
723.0166837632
 21
-390.7562783066
 31
0.0
  0
LINE
  5
1B1
330
1F
100
AcDbEntity
  8
0
  6
CONTINUOUS
 62
     8
100
AcDbLine
 10
728.6735380127
 20
-390.7562783066
 30
0.0
 11
728.3199846723
 21
-390.5522266968
 31
0.0
  0
LINE
  5
1B2
330
1F
100
AcDbEntity
  8
0
  6
CONTINUOUS
 62
     8
100
AcDbLine
 10
731.1484117469
 20
-389.327916835
 30
0.0
 11
728.3199846221
 21
-387.6955037246
 31
0.0
  0
LINE
  5
1B3
330
1F
100
AcDbEntity
  8
0
  6
CONTINUOUS
 62
     8
100
AcDbLine
 10
733.9768388716
 20
-387.6955037246
 30
0.0
 11
733.6232855312
 21
-387.4914521147
 31
0.0
  0
LINE
  5
1B4
330
1F
100
AcDbEntity
  8
0
  6
CONTINUOUS
 62
     8
100
AcDbLine
 10
736.4517126058
 20
-386.267142253
 30
0.0
 11
733.623285481
 21
-384.6347291426
 31
0.0
  0
ARC
  5
1B5
330
1F
100
AcDbEntity
  8
0
  6
CONTINUOUS
 62
     7
100
AcDbCircle
 10
676.0242025357
 20
-404.5274015665
 30
0.0
 40
0.7375777519890957
100
AcDbArc
 50
115.2404585297
 51
178.2316884509
  0
ARC
  5
1B6
330
1F
100
AcDbEntity
  8
0
  6
CONTINUOUS
 62
     7
100
AcDbCircle
 10
677.6238649575
 20
-419.9704379004
 30
0.0
 40
0.2183902589986955
100
AcDbArc
 50
170.7797338916
 51
309.1850265524
  0
ARC
  5
1B7
330
1F
100
AcDbEntity
  8
0
  6
CONTINUOUS
 62
     7
100
AcDbCircle
 10
679.8227492443
 20
-418.0640963822
 30
0.0
 40
0.7683199757773203
100
AcDbArc
 50
302.602292723
 51
357.3977057122
  0
ARC
  5
1B8
330
1F
100
AcDbEntity
  8
0
  6
CONTINUOUS
 62
     7
100
AcDbCircle
 10
681.3337072994
 20
-402.584498072
 30
0.0
 40
0.7438625899769664
100
AcDbArc
 50
116.5401286126
 51
178.0468034659
  0
ARC
  5
1B9
330
1F
100
AcDbEntity
  8
0
  6
CONTINUOUS
 62
     7
100
AcDbCircle
 10
682.9271658164
 20
-416.9096633183
 30
0.0
 40
0.2183902589987
100
AcDbArc
 50
170.7797338916
 51
309.1850265523
  0
ARC
  5
1BA
330
1F
100
AcDbEntity
  8
0
  6
CONTINUOUS
 62
     7
100
AcDbCircle
 10
685.1260501032
 20
-415.0033218001
 30
0.0
 40
0.7683199757772379
100
AcDbArc
 50
302.602292723
 51
357.3977057122
  0
ARC
  5
1BB
330
1F
100
AcDbEntity
  8
0
  6
CONTINUOUS
 62
     7
100
AcDbCircle
 10
686.642768747
 20
-400.4310950508
 30
0.0
 40
0.7497034476242397
100
AcDbArc
 50
117.812143567
 51
177.8814241346
  0
ARC
  5
1BC
330
1F
100
AcDbEntity
  8
0
  6
CONTINUOUS
 62
     7
100
AcDbCircle
 10
688.2304666753
 20
-413.8488887363
 30
0.0
 40
0.218390258998606
100
AcDbArc
 50
170.7797338915
 51
309.1850265523
  0
ARC
  5
1BD
330
1F
100
AcDbEntity
  8
0
  6
CONTINUOUS
 62
     7
100
AcDbCircle
 10
690.4293509621
 20
-411.9425472181
 30
0.0
 40
0.7683199757772591
100
AcDbArc
 50
302.602292723
 51
357.3977057122
  0
ARC
  5
1BE
330
1F
100
AcDbEntity
  8
0
  6
CONTINUOUS
 62
     7
100
AcDbCircle
 10
691.9513865919
 20
-398.070286674
 30
0.0
 40
0.7550982961694522
100
AcDbArc
 50
119.0595226868
 51
177.7342824083
  0
ARC
  5
1BF
330
1F
100
AcDbEntity
  8
0
  6
CONTINUOUS
 62
     7
100
AcDbCircle
 10
693.5337675342
 20
-410.7881141543
 30
0.0
 40
0.2183902589985959
100
AcDbArc
 50
170.7797338916
 51
309.1850265523
  0
ARC
  5
1C0
330
1F
100
AcDbEntity
  8
0
  6
CONTINUOUS
 62
     7
100
AcDbCircle
 10
695.732651821
 20
-408.8817726361
 30
0.0
 40
0.7683199757768224
100
AcDbArc
 50
302.6022927229
 51
357.3977057122
  0
ARC
  5
1C1
330
1F
100
AcDbEntity
  8
0
  6
CONTINUOUS
 62
     7
100
AcDbCircle
 10
697.2595594723
 20
-395.504418613
 30
0.0
 40
0.7600443336250513
100
AcDbArc
 50
120.2850776935
 51
177.6042484545
  0
ARC
  5
1C2
330
1F
100
AcDbEntity
  8
0
  6
CONTINUOUS
 62
     7
100
AcDbCircle
 10
698.4091829878
 20
-394.3083694556
 30
0.0
 40
0.2155270477682616
100
AcDbArc
 50
350.0986389064
 51
124.414462689
  0
ARC
  5
1C3
330
1F
100
AcDbEntity
  8
0
  6
CONTINUOUS
 62
     7
100
AcDbCircle
 10
698.8370683931
 20
-407.7273395722
 30
0.0
 40
0.2183902589986151
100
AcDbArc
 50
170.7797338915
 51
309.1850265523
  0
ARC
  5
1C4
330
1F
100
AcDbEntity
  8
0
  6
CONTINUOUS
 62
     7
100
AcDbCircle
 10
714.824534913
 20
-397.8629841407
 30
0.0
 40
0.768319975777813
100
AcDbArc
 50
302.602292723
 51
357.3977057122
  0
ARC
  5
1C5
330
1F
100
AcDbEntity
  8
0
  6
CONTINUOUS
 62
     7
100
AcDbCircle
 10
716.3652497133
 20
-384.5879108908
 30
0.0
 40
0.7740700168347178
100
AcDbArc
 50
124.5558555169
 51
177.2632459167
  0
ARC
  5
1C6
330
1F
100
AcDbEntity
  8
0
  6
CONTINUOUS
 62
     7
100
AcDbCircle
 10
717.9289514851
 20
-396.7085510769
 30
0.0
 40
0.21839025899864
100
AcDbArc
 50
170.7797338916
 51
309.1850265523
  0
ARC
  5
1C7
330
1F
100
AcDbEntity
  8
0
  6
CONTINUOUS
 62
     7
100
AcDbCircle
 10
720.1278357719
 20
-394.8022095587
 30
0.0
 40
0.768319975777578
100
AcDbArc
 50
302.602292723
 51
357.3977057122
  0
ARC
  5
1C8
330
1F
100
AcDbEntity
  8
0
  6
CONTINUOUS
 62
     7
100
AcDbCircle
 10
721.6713283815
 20
-381.0894540322
 30
0.0
 40
0.7768921458691169
100
AcDbArc
 50
125.7131334098
 51
177.2004808262
  0
ARC
  5
1C9
330
1F
100
AcDbEntity
  8
0
  6
CONTINUOUS
 62
     7
100
AcDbCircle
 10
723.232252344
 20
-393.6477764949
 30
0.0
 40
0.2183902589987
100
AcDbArc
 50
170.7797338916
 51
309.1850265523
  0
ARC
  5
1CA
330
1F
100
AcDbEntity
  8
0
  6
CONTINUOUS
 62
     7
100
AcDbCircle
 10
725.4311366308
 20
-391.7414349767
 30
0.0
 40
0.7683199757773815
100
AcDbArc
 50
302.602292723
 51
357.3977057122
  0
ARC
  5
1CB
330
1F
100
AcDbEntity
  8
0
  6
CONTINUOUS
 62
     7
100
AcDbCircle
 10
726.976934794
 20
-377.3864683412
 30
0.0
 40
0.7792340545769001
100
AcDbArc
 50
126.8619859547
 51
177.1504051118
  0
ARC
  5
1CC
330
1F
100
AcDbEntity
  8
0
  6
CONTINUOUS
 62
     7
100
AcDbCircle
 10
728.5355532029
 20
-390.5870019128
 30
0.0
 40
0.2183902589984847
100
AcDbArc
 50
170.7797338915
 51
309.1850265523
  0
ARC
  5
1CD
330
1F
100
AcDbEntity
  8
0
  6
CONTINUOUS
 62
     7
100
AcDbCircle
 10
730.7344374897
 20
-388.6806603946
 30
0.0
 40
0.7683199757774671
100
AcDbArc
 50
302.602292723
 51
357.3977057122
  0
ARC
  5
1CE
330
1F
100
AcDbEntity
  8
0
  6
CONTINUOUS
 62
     7
100
AcDbCircle
 10
732.2820602922
 20
-373.4768105854
 30
0.0
 40
0.7810868523961111
100
AcDbArc
 50
128.0046088666
 51
177.1124895484
  0
ARC
  5
1CF
330
1F
100
AcDbEntity
  8
0
  6
CONTINUOUS
 62
     7
100
AcDbCircle
 10
733.8388540618
 20
-387.5262273308
 30
0.0
 40
0.2183902589984637
100
AcDbArc
 50
170.7797338915
 51
309.1850265524
  0
ARC
  5
1D0
330
1F
100
AcDbEntity
  8
0
  6
CONTINUOUS
 62
     7
100
AcDbCircle
 10
736.0377383486
 20
-385.6198858126
 30
0.0
 40
0.7683199757773681
100
AcDbArc
 50
302.602292723
 51
357.3977057122
  0
ARC
  5
1D1
330
1F
100
AcDbEntity
  8
0
  6
CONTINUOUS
 62
     7
100
AcDbCircle
 10
737.5866948861
 20
-369.3576013407
 30
0.0
 40
0.7824404273892489
100
AcDbArc
 50
129.1432001097
 51
177.0862666275
  0
ARC
  5
1D2
330
1F
100
AcDbEntity
  8
0
  6
CONTINUOUS
 62
     7
100
AcDbCircle
 10
738.1590586922
 20
-389.2954253108
 30
0.0
 40
0.7683199757765696
100
AcDbArc
 50
302.6022927229
 51
357.3977057122
  0
ARC
  5
1D3
330
1F
100
AcDbEntity
  8
0
  6
CONTINUOUS
 62
     7
100
AcDbCircle
 10
675.5025446139
 20
-426.0945970642
 30
0.0
 40
0.2183902589985959
100
AcDbArc
 50
170.7797338916
 51
309.1850265523
  0
ARC
  5
1D4
330
1F
100
AcDbEntity
  8
0
  6
CONTINUOUS
 62
     7
100
AcDbCircle
 10
-31.0825786508
 20
3.575876038
 30
0.0
 40
0.737577751988603
100
AcDbArc
 50
115.2404585297
 51
178.231688451
  0
ARC
  5
1D5
330
1F
100
AcDbEntity
  8
0
  6
CONTINUOUS
 62
     7
100
AcDbCircle
 10
-29.9005433802
 20
4.5442341917
 30
0.0
 40
0.2135775886828237
100
AcDbArc
 50
62.5546027082
 51
113.582671294
  0
ARC
  5
1D6
330
1F
100
AcDbEntity
  8
0
  6
CONTINUOUS
 62
     7
100
AcDbCircle
 10
-25.7730738871
 20
5.5187795325
 30
0.0
 40
0.7438625899765026
100
AcDbArc
 50
116.5401286126
 51
178.0468034659
  0
ARC
  5
1D7
330
1F
100
AcDbEntity
  8
0
  6
CONTINUOUS
 62
     7
100
AcDbCircle
 10
-24.5983852462
 20
6.5399659528
 30
0.0
 40
0.2195984519566894
100
AcDbArc
 50
63.0334700896
 51
115.9111003532
  0
ARC
  5
1D8
330
1F
100
AcDbEntity
  8
0
  6
CONTINUOUS
 62
     7
100
AcDbCircle
 10
-20.4640124395
 20
7.6721825538
 30
0.0
 40
0.749703447624376
100
AcDbArc
 50
117.812143567
 51
177.8814241346
  0
ARC
  5
1D9
330
1F
100
AcDbEntity
  8
0
  6
CONTINUOUS
 62
     7
100
AcDbCircle
 10
-19.296137718
 20
8.7447108845
 30
0.0
 40
0.2259124389474336
100
AcDbArc
 50
63.5473202853
 51
118.1443139276
  0
ARC
  5
1DA
330
1F
100
AcDbEntity
  8
0
  6
CONTINUOUS
 62
     7
100
AcDbCircle
 10
-15.1553945947
 20
10.0329909306
 30
0.0
 40
0.7550982961689633
100
AcDbArc
 50
119.0595226868
 51
177.7342824084
  0
ARC
  5
1DB
330
1F
100
AcDbEntity
  8
0
  6
CONTINUOUS
 62
     7
100
AcDbCircle
 10
-31.5818889444
 20
-17.9866152643
 30
0.0
 40
0.2398364416396415
100
AcDbArc
 50
172.7448372597
 51
235.9477198176
  0
ARC
  5
1DC
330
1F
100
AcDbEntity
  8
0
  6
CONTINUOUS
 62
     7
100
AcDbCircle
 10
-13.9937868482
 20
11.1555922491
 30
0.0
 40
0.2325126039720219
100
AcDbArc
 50
64.0937834355
 51
120.2880498743
  0
ARC
  5
1DD
330
1F
100
AcDbEntity
  8
0
  6
CONTINUOUS
 62
     7
100
AcDbCircle
 10
-9.8472217143
 20
12.5988589915
 30
0.0
 40
0.7600443336250406
100
AcDbArc
 50
120.2850776935
 51
177.6042484545
  0
ARC
  5
1DE
330
1F
100
AcDbEntity
  8
0
  6
CONTINUOUS
 62
     7
100
AcDbCircle
 10
-8.6913193577
 20
13.7704687398
 30
0.0
 40
0.239393194893761
100
AcDbArc
 50
64.6705006763
 51
122.3478881519
  0
ARC
  5
1DF
330
1F
100
AcDbEntity
  8
0
  6
CONTINUOUS
 62
     7
100
AcDbCircle
 10
9.2584685268
 20
23.5153667137
 30
0.0
 40
0.7740700168344152
100
AcDbArc
 50
124.5558555169
 51
177.2632459167
  0
ARC
  5
1E0
330
1F
100
AcDbEntity
  8
0
  6
CONTINUOUS
 62
     7
100
AcDbCircle
 10
10.3977482783
 20
24.864428816
 30
0.0
 40
0.2605005183735098
100
AcDbArc
 50
66.1736316697
 51
129.9390484611
  0
ARC
  5
1E1
330
1F
100
AcDbEntity
  8
0
  6
CONTINUOUS
 62
     7
100
AcDbCircle
 10
14.5645471949
 20
27.0138235723
 30
0.0
 40
0.7768921458699308
100
AcDbArc
 50
125.7131334099
 51
177.2004808261
  0
ARC
  5
1E2
330
1F
100
AcDbEntity
  8
0
  6
CONTINUOUS
 62
     7
100
AcDbCircle
 10
15.7006670142
 20
28.4100172232
 30
0.0
 40
0.2681481783394154
100
AcDbArc
 50
66.8044735494
 51
131.7364405447
  0
ARC
  5
1E3
330
1F
100
AcDbEntity
  8
0
  6
CONTINUOUS
 62
     7
100
AcDbCircle
 10
19.8701536074
 20
30.7168092633
 30
0.0
 40
0.7792340545761193
100
AcDbArc
 50
126.8619859547
 51
177.1504051118
  0
ARC
  5
1E4
330
1F
100
AcDbEntity
  8
0
  6
CONTINUOUS
 62
     7
100
AcDbCircle
 10
21.0037432935
 20
32.160141133
 30
0.0
 40
0.2760486603735868
100
AcDbArc
 50
67.4548605851
 51
133.4769058986
  0
ARC
  5
1E5
330
1F
100
AcDbEntity
  8
0
  6
CONTINUOUS
 62
     7
100
AcDbCircle
 10
7.7177537265
 20
10.2402934638
 30
0.0
 40
0.7683199757771636
100
AcDbArc
 50
302.602292723
 51
357.3977057122
  0
ARC
  5
1E6
330
1F
100
AcDbEntity
  8
0
  6
CONTINUOUS
 62
     7
100
AcDbCircle
 10
25.1752791057
 20
34.6264670191
 30
0.0
 40
0.781086852396381
100
AcDbArc
 50
128.0046088666
 51
177.1124895484
  0
ARC
  5
1E7
330
1F
100
AcDbEntity
  8
0
  6
CONTINUOUS
 62
     7
100
AcDbCircle
 10
26.3069876327
 20
36.1171425455
 30
0.0
 40
0.2842015148251145
100
AcDbArc
 50
68.1232542793
 51
135.1647169188
  0
ARC
  5
1E8
330
1F
100
AcDbEntity
  8
0
  6
CONTINUOUS
 62
     7
100
AcDbCircle
 10
30.4799136996
 20
38.7456762638
 30
0.0
 40
0.7824404273880314
100
AcDbArc
 50
129.1432001097
 51
177.0862666275
  0
ARC
  5
1E9
330
1F
100
AcDbEntity
  8
0
  6
CONTINUOUS
 62
     7
100
AcDbCircle
 10
31.6104104994
 20
40.2841110624
 30
0.0
 40
0.2926069397882953
100
AcDbArc
 50
68.8082339571
 51
136.8040204149
  0
LINE
  5
23A
330
1B
100
AcDbEntity
 67
     1
  8
0
  6
CONTINUOUS
 62
     7
100
AcDbLine
 10
-44.4021978022
 20
27.3849851642
 30
0.0
 11
-42.4065934066
 21
26.9962313421
 31
0.0
  0
LINE
  5
23B
330
1B
100
AcDbEntity
 67
     1
  8
0
  6
CONTINUOUS
 62
     7
100
AcDbLine
 10
-42.0
 20
26.5050336137
 30
0.0
 11
-42.0
 21
6.5
 31
0.0
  0
LINE
  5
23C
330
1B
100
AcDbEntity
 67
     1
  8
0
  6
CONTINUOUS
 62
     7
100
AcDbLine
 10
-41.5
 20
6.0
 30
0.0
 11
-38.0
 21
6.0
 31
0.0
  0
LINE
  5
23D
330
1B
100
AcDbEntity
 67
     1
  8
0
  6
CONTINUOUS
 62
     7
100
AcDbLine
 10
-37.5
 20
6.5
 30
0.0
 11
-37.5
 21
25.5289550967
 31
0.0
  0
LINE
  5
23E
330
1B
100
AcDbEntity
 67
     1
  8
0
  6
CONTINUOUS
 62
     7
100
AcDbLine
 10
-36.9186813187
 20
26.0222980525
 30
0.0
 11
-34.9230769231
 21
25.7024772802
 31
0.0
  0
LINE
  5
23F
330
1B
100
AcDbEntity
 67
     1
  8
0
  6
CONTINUOUS
 62
     7
100
AcDbLine
 10
-34.5
 20
25.2084298734
 30
0.0
 11
-34.5
 21
6.5
 31
0.0
  0
LINE
  5
240
330
1B
100
AcDbEntity
 67
     1
  8
0
  6
CONTINUOUS
 62
     7
100
AcDbLine
 10
-34.0
 20
6.0
 30
0.0
 11
-30.5
 21
6.0
 31
0.0
  0
LINE
  5
241
330
1B
100
AcDbEntity
 67
     1
  8
0
  6
CONTINUOUS
 62
     7
100
AcDbLine
 10
-30.0
 20
6.5
 30
0.0
 11
-30.0
 21
24.4207456347
 31
0.0
  0
LINE
  5
242
330
1B
100
AcDbEntity
 67
     1
  8
0
  6
CONTINUOUS
 62
     7
100
AcDbLine
 10
-29.4351648352
 20
24.9165242157
 30
0.0
 11
-27.4395604396
 21
24.6645378044
 31
0.0
  0
LINE
  5
243
330
1B
100
AcDbEntity
 67
     1
  8
0
  6
CONTINUOUS
 62
     7
100
AcDbLine
 10
-27.0
 20
24.1682041873
 30
0.0
 11
-27.0
 21
6.5
 31
0.0
  0
LINE
  5
244
330
1B
100
AcDbEntity
 67
     1
  8
0
  6
CONTINUOUS
 62
     7
100
AcDbLine
 10
-26.5
 20
6.0
 30
0.0
 11
-23.0
 21
6.0
 31
0.0
  0
LINE
  5
245
330
1B
100
AcDbEntity
 67
     1
  8
0
  6
CONTINUOUS
 62
     7
100
AcDbLine
 10
-22.5
 20
6.5
 30
0.0
 11
-22.5
 21
23.56623485
 31
0.0
  0
LINE
  5
246
330
1B
100
AcDbEntity
 67
     1
  8
0
  6
CONTINUOUS
 62
     7
100
AcDbLine
 10
-21.9516483516
 20
24.0638914767
 30
0.0
 11
-19.956043956
 21
23.8788901725
 31
0.0
  0
LINE
  5
247
330
1B
100
AcDbEntity
 67
     1
  8
0
  6
CONTINUOUS
 62
     7
100
AcDbLine
 10
-19.5
 20
23.3808260539
 30
0.0
 11
-19.5
 21
6.5
 31
0.0
  0
LINE
  5
248
330
1B
100
AcDbEntity
 67
     1
  8
0
  6
CONTINUOUS
 62
     7
100
AcDbLine
 10
-19.0
 20
6.0
 30
0.0
 11
-15.5
 21
6.0
 31
0.0
  0
LINE
  5
249
330
1B
100
AcDbEntity
 67
     1
  8
0
  6
CONTINUOUS
 62
     7
100
AcDbLine
 10
-15.0
 20
6.5
 30
0.0
 11
-15.0
 21
22.9625581539
 31
0.0
  0
LINE
  5
24A
330
1B
100
AcDbEntity
 67
     1
  8
0
  6
CONTINUOUS
 62
     7
100
AcDbLine
 10
-14.4681318681
 20
23.4615415426
 30
0.0
 11
-12.4725274725
 21
23.3429108577
 31
0.0
  0
LINE
  5
24B
330
1B
100
AcDbEntity
 67
     1
  8
0
  6
CONTINUOUS
 62
     7
100
AcDbLine
 10
-12.0
 20
22.843666168
 30
0.0
 11
-12.0
 21
6.5
 31
0.0
  0
LINE
  5
24C
330
1B
100
AcDbEntity
 67
     1
  8
0
  6
CONTINUOUS
 62
     7
100
AcDbLine
 10
-11.5
 20
6.0
 30
0.0
 11
11.5
 21
6.0
 31
0.0
  0
LINE
  5
24D
330
1B
100
AcDbEntity
 67
     1
  8
0
  6
CONTINUOUS
 62
     7
100
AcDbLine
 10
12.0
 20
6.5
 30
0.0
 11
12.0
 21
22.843666168
 31
0.0
  0
LINE
  5
24E
330
1B
100
AcDbEntity
 67
     1
  8
0
  6
CONTINUOUS
 62
     7
100
AcDbLine
 10
12.4725274725
 20
23.3429108577
 30
0.0
 11
14.4681318681
 21
23.4615415426
 31
0.0
  0
LINE
  5
24F
330
1B
100
AcDbEntity
 67
     1
  8
0
  6
CONTINUOUS
 62
     7
100
AcDbLine
 10
15.0
 20
22.9625581539
 30
0.0
 11
15.0
 21
6.5
 31
0.0
  0
LINE
  5
250
330
1B
100
AcDbEntity
 67
     1
  8
0
  6
CONTINUOUS
 62
     7
100
AcDbLine
 10
15.5
 20
6.0
 30
0.0
 11
19.0
 21
6.0
 31
0.0
  0
LINE
  5
251
330
1B
100
AcDbEntity
 67
     1
  8
0
  6
CONTINUOUS
 62
     7
100
AcDbLine
 10
19.5
 20
6.5
 30
0.0
 11
19.5
 21
23.3808260539
 31
0.0
  0
LINE
  5
252
330
1B
100
AcDbEntity
 67
     1
  8
0
  6
CONTINUOUS
 62
     7
100
AcDbLine
 10
19.956043956
 20
23.8788901725
 30
0.0
 11
21.9516483516
 21
24.0638914767
 31
0.0
  0
LINE
  5
253
330
1B
100
AcDbEntity
 67
     1
  8
0
  6
CONTINUOUS
 62
     7
100
AcDbLine
 10
22.5
 20
23.56623485
 30
0.0
 11
22.5
 21
6.5
 31
0.0
  0
LINE
  5
254
330
1B
100
AcDbEntity
 67
     1
  8
0
  6
CONTINUOUS
 62
     7
100
AcDbLine
 10
23.0
 20
6.0
 30
0.0
 11
26.5
 21
6.0
 31
0.0
  0
LINE
  5
255
330
1B
100
AcDbEntity
 67
     1
  8
0
  6
CONTINUOUS
 62
     7
100
AcDbLine
 10
27.0
 20
6.5
 30
0.0
 11
27.0
 21
24.1682041873
 31
0.0
  0
LINE
  5
256
330
1B
100
AcDbEntity
 67
     1
  8
0
  6
CONTINUOUS
 62
     7
100
AcDbLine
 10
27.4395604396
 20
24.6645378044
 30
0.0
 11
29.4351648352
 21
24.9165242157
 31
0.0
  0
LINE
  5
257
330
1B
100
AcDbEntity
 67
     1
  8
0
  6
CONTINUOUS
 62
     7
100
AcDbLine
 10
30.0
 20
24.4207456347
 30
0.0
 11
30.0
 21
6.5
 31
0.0
  0
LINE
  5
258
330
1B
100
AcDbEntity
 67
     1
  8
0
  6
CONTINUOUS
 62
     7
100
AcDbLine
 10
30.5
 20
6.0
 30
0.0
 11
34.0
 21
6.0
 31
0.0
  0
LINE
  5
259
330
1B
100
AcDbEntity
 67
     1
  8
0
  6
CONTINUOUS
 62
     7
100
AcDbLine
 10
34.5
 20
6.5
 30
0.0
 11
34.5
 21
25.2084298734
 31
0.0
  0
LINE
  5
25A
330
1B
100
AcDbEntity
 67
     1
  8
0
  6
CONTINUOUS
 62
     7
100
AcDbLine
 10
34.9230769231
 20
25.7024772802
 30
0.0
 11
36.9186813187
 21
26.0222980525
 31
0.0
  0
LINE
  5
25B
330
1B
100
AcDbEntity
 67
     1
  8
0
  6
CONTINUOUS
 62
     7
100
AcDbLine
 10
37.5
 20
25.5289550967
 30
0.0
 11
37.5
 21
6.5
 31
0.0
  0
LINE
  5
25C
330
1B
100
AcDbEntity
 67
     1
  8
0
  6
CONTINUOUS
 62
     7
100
AcDbLine
 10
38.0
 20
6.0
 30
0.0
 11
41.5
 21
6.0
 31
0.0
  0
LINE
  5
25D
330
1B
100
AcDbEntity
 67
     1
  8
0
  6
CONTINUOUS
 62
     7
100
AcDbLine
 10
42.0
 20
6.5
 30
0.0
 11
42.0
 21
26.5050336137
 31
0.0
  0
LINE
  5
25E
330
1B
100
AcDbEntity
 67
     1
  8
0
  6
CONTINUOUS
 62
     7
100
AcDbLine
 10
42.4065934066
 20
26.9962313421
 30
0.0
 11
44.4021978022
 21
27.3849851642
 31
0.0
  0
LINE
  5
25F
330
1B
100
AcDbEntity
 67
     1
  8
0
  6
CONTINUOUS
 62
     7
100
AcDbLine
 10
45.0
 20
26.8946437219
 30
0.0
 11
45.0
 21
0.5
 31
0.0
  0
LINE
  5
260
330
1B
100
AcDbEntity
 67
     1
  8
0
  6
CONTINUOUS
 62
     7
100
AcDbLine
 10
44.5
 20
0.0
 30
0.0
 11
-44.5
 21
0.0
 31
0.0
  0
LINE
  5
261
330
1B
100
AcDbEntity
 67
     1
  8
0
  6
CONTINUOUS
 62
     7
100
AcDbLine
 10
-45.0
 20
0.5
 30
0.0
 11
-45.0
 21
26.8946437219
 31
0.0
  0
ARC
  5
262
330
1B
100
AcDbEntity
 67
     1
  8
0
  6
CONTINUOUS
 62
     7
100
AcDbCircle
 10
-44.5
 20
26.8946437219
 30
0.0
 40
0.5000000000001066
100
AcDbArc
 50
78.7199671432
 51
180.0
  0
ARC
  5
263
330
1B
100
AcDbEntity
 67
     1
  8
0
  6
CONTINUOUS
 62
     7
100
AcDbCircle
 10
-42.5
 20
26.5050336137
 30
0.0
 40
0.5000000000000148
100
AcDbArc
 50
0.0
 51
79.2331364679
  0
ARC
  5
264
330
1B
100
AcDbEntity
 67
     1
  8
0
  6
CONTINUOUS
 62
     7
100
AcDbCircle
 10
-41.5
 20
6.5
 30
0.0
 40
0.4999999999999947
100
AcDbArc
 50
180.0
 51
270.0
  0
ARC
  5
265
330
1B
100
AcDbEntity
 67
     1
  8
0
  6
CONTINUOUS
 62
     7
100
AcDbCircle
 10
-38.0
 20
6.5
 30
0.0
 40
0.4999999999999938
100
AcDbArc
 50
270.0
 51
0.0
  0
ARC
  5
266
330
1B
100
AcDbEntity
 67
     1
  8
0
  6
CONTINUOUS
 62
     7
100
AcDbCircle
 10
-37.0
 20
25.5289550967
 30
0.0
 40
0.5000000000002061
100
AcDbArc
 50
80.6399885347
 51
180.0
  0
ARC
  5
267
330
1B
100
AcDbEntity
 67
     1
  8
0
  6
CONTINUOUS
 62
     7
100
AcDbCircle
 10
-35.0
 20
25.2084298734
 30
0.0
 40
0.5000000000000284
100
AcDbArc
 50
0.0
 51
81.1501169016
  0
ARC
  5
268
330
1B
100
AcDbEntity
 67
     1
  8
0
  6
CONTINUOUS
 62
     7
100
AcDbCircle
 10
-34.0
 20
6.5
 30
0.0
 40
0.4999999999999947
100
AcDbArc
 50
180.0
 51
270.0
  0
ARC
  5
269
330
1B
100
AcDbEntity
 67
     1
  8
0
  6
CONTINUOUS
 62
     7
100
AcDbCircle
 10
-30.5
 20
6.5
 30
0.0
 40
0.5000000000000018
100
AcDbArc
 50
270.0
 51
0.0
  0
ARC
  5
26A
330
1B
100
AcDbEntity
 67
     1
  8
0
  6
CONTINUOUS
 62
     7
100
AcDbCircle
 10
-29.5
 20
24.4207456347
 30
0.0
 40
0.5000000000001137
100
AcDbArc
 50
82.5494576489
 51
180.0
  0
ARC
  5
26B
330
1B
100
AcDbEntity
 67
     1
  8
0
  6
CONTINUOUS
 62
     7
100
AcDbCircle
 10
-27.5
 20
24.1682041873
 30
0.0
 40
0.5000000000000352
100
AcDbArc
 50
0.0
 51
83.0571581546
  0
ARC
  5
26C
330
1B
100
AcDbEntity
 67
     1
  8
0
  6
CONTINUOUS
 62
     7
100
AcDbCircle
 10
-26.5
 20
6.5
 30
0.0
 40
0.5000000000000009
100
AcDbArc
 50
180.0
 51
270.0
  0
ARC
  5
26D
330
1B
100
AcDbEntity
 67
     1
  8
0
  6
CONTINUOUS
 62
     7
100
AcDbCircle
 10
-23.0
 20
6.5
 30
0.0
 40
0.5000000000000036
100
AcDbArc
 50
270.0
 51
0.0
  0
ARC
  5
26E
330
1B
100
AcDbEntity
 67
     1
  8
0
  6
CONTINUOUS
 62
     7
100
AcDbCircle
 10
-22.0
 20
23.56623485
 30
0.0
 40
0.5000000000001187
100
AcDbArc
 50
84.4506370361
 51
180.0
  0
ARC
  5
26F
330
1B
100
AcDbEntity
 67
     1
  8
0
  6
CONTINUOUS
 62
     7
100
AcDbCircle
 10
-20.0
 20
23.3808260539
 30
0.0
 40
0.500000000000005
100
AcDbArc
 50
0.0
 51
84.9564976311
  0
ARC
  5
270
330
1B
100
AcDbEntity
 67
     1
  8
0
  6
CONTINUOUS
 62
     7
100
AcDbCircle
 10
-19.0
 20
6.5
 30
0.0
 40
0.5000000000000036
100
AcDbArc
 50
180.0
 51
270.0
  0
ARC
  5
271
330
1B
100
AcDbEntity
 67
     1
  8
0
  6
CONTINUOUS
 62
     7
100
AcDbCircle
 10
-15.5
 20
6.5
 30
0.0
 40
0.5
100
AcDbArc
 50
270.0
 51
0.0
  0
ARC
  5
272
330
1B
100
AcDbEntity
 67
     1
  8
0
  6
CONTINUOUS
 62
     7
100
AcDbCircle
 10
-14.5
 20
22.9625581539
 30
0.0
 40
0.5000000000001403
100
AcDbArc
 50
86.3457040844
 51
180.0
  0
ARC
  5
273
330
1B
100
AcDbEntity
 67
     1
  8
0
  6
CONTINUOUS
 62
     7
100
AcDbCircle
 10
-12.5
 20
22.843666168
 30
0.0
 40
0.499999999999968
100
AcDbArc
 50
360.0
 51
86.8502940833
  0
ARC
  5
274
330
1B
100
AcDbEntity
 67
     1
  8
0
  6
CONTINUOUS
 62
     7
100
AcDbCircle
 10
-11.5
 20
6.5
 30
0.0
 40
0.5000000000000018
100
AcDbArc
 50
180.0
 51
270.0
  0
ARC
  5
275
330
1B
100
AcDbEntity
 67
     1
  8
0
  6
CONTINUOUS
 62
     7
100
AcDbCircle
 10
11.5
 20
6.5
 30
0.0
 40
0.5000000000000036
100
AcDbArc
 50
270.0
 51
0.0
  0
ARC
  5
276
330
1B
100
AcDbEntity
 67
     1
  8
0
  6
CONTINUOUS
 62
     7
100
AcDbCircle
 10
12.5
 20
22.843666168
 30
0.0
 40
0.500000000000153
100
AcDbArc
 50
93.1497059167
 51
180.0
  0
ARC
  5
277
330
1B
100
AcDbEntity
 67
     1
  8
0
  6
CONTINUOUS
 62
     7
100
AcDbCircle
 10
14.5
 20
22.9625581539
 30
0.0
 40
0.5000000000000391
100
AcDbArc
 50
0.0
 51
93.6542959156
  0
ARC
  5
278
330
1B
100
AcDbEntity
 67
     1
  8
0
  6
CONTINUOUS
 62
     7
100
AcDbCircle
 10
15.5
 20
6.5
 30
0.0
 40
0.4999999999999991
100
AcDbArc
 50
180.0
 51
270.0
  0
ARC
  5
279
330
1B
100
AcDbEntity
 67
     1
  8
0
  6
CONTINUOUS
 62
     7
100
AcDbCircle
 10
19.0
 20
6.5
 30
0.0
 40
0.5000000000000036
100
AcDbArc
 50
270.0
 51
0.0
  0
ARC
  5
27A
330
1B
100
AcDbEntity
 67
     1
  8
0
  6
CONTINUOUS
 62
     7
100
AcDbCircle
 10
20.0
 20
23.3808260539
 30
0.0
 40
0.500000000000135
100
AcDbArc
 50
95.043502369
 51
180.0
  0
ARC
  5
27B
330
1B
100
AcDbEntity
 67
     1
  8
0
  6
CONTINUOUS
 62
     7
100
AcDbCircle
 10
22.0
 20
23.56623485
 30
0.0
 40
0.499999999999994
100
AcDbArc
 50
0.0
 51
95.5493629639
  0
ARC
  5
27C
330
1B
100
AcDbEntity
 67
     1
  8
0
  6
CONTINUOUS
 62
     7
100
AcDbCircle
 10
23.0
 20
6.5
 30
0.0
 40
0.5000000000000009
100
AcDbArc
 50
180.0
 51
270.0
  0
ARC
  5
27D
330
1B
100
AcDbEntity
 67
     1
  8
0
  6
CONTINUOUS
 62
     7
100
AcDbCircle
 10
26.5
 20
6.5
 30
0.0
 40
0.5000000000000036
100
AcDbArc
 50
270.0
 51
0.0
  0
ARC
  5
27E
330
1B
100
AcDbEntity
 67
     1
  8
0
  6
CONTINUOUS
 62
     7
100
AcDbCircle
 10
27.5
 20
24.1682041873
 30
0.0
 40
0.5000000000002167
100
AcDbArc
 50
96.9428418454
 51
180.0
  0
ARC
  5
27F
330
1B
100
AcDbEntity
 67
     1
  8
0
  6
CONTINUOUS
 62
     7
100
AcDbCircle
 10
29.5
 20
24.4207456347
 30
0.0
 40
0.5000000000000391
100
AcDbArc
 50
0.0
 51
97.4505423511
  0
ARC
  5
280
330
1B
100
AcDbEntity
 67
     1
  8
0
  6
CONTINUOUS
 62
     7
100
AcDbCircle
 10
30.5
 20
6.5
 30
0.0
 40
0.5000000000000009
100
AcDbArc
 50
180.0
 51
270.0
  0
ARC
  5
281
330
1B
100
AcDbEntity
 67
     1
  8
0
  6
CONTINUOUS
 62
     7
100
AcDbCircle
 10
34.0
 20
6.5
 30
0.0
 40
0.4999999999999938
100
AcDbArc
 50
270.0
 51
0.0
  0
ARC
  5
282
330
1B
100
AcDbEntity
 67
     1
  8
0
  6
CONTINUOUS
 62
     7
100
AcDbCircle
 10
35.0
 20
25.2084298734
 30
0.0
 40
0.5000000000001563
100
AcDbArc
 50
98.8498830984
 51
180.0
  0
ARC
  5
283
330
1B
100
AcDbEntity
 67
     1
  8
0
  6
CONTINUOUS
 62
     7
100
AcDbCircle
 10
37.0
 20
25.5289550967
 30
0.0
 40
0.5000000000000446
100
AcDbArc
 50
0.0
 51
99.3600114653
  0
ARC
  5
284
330
1B
100
AcDbEntity
 67
     1
  8
0
  6
CONTINUOUS
 62
     7
100
AcDbCircle
 10
38.0
 20
6.5
 30
0.0
 40
0.4999999999999947
100
AcDbArc
 50
180.0
 51
270.0
  0
ARC
  5
285
330
1B
100
AcDbEntity
 67
     1
  8
0
  6
CONTINUOUS
 62
     7
100
AcDbCircle
 10
41.5
 20
6.5
 30
0.0
 40
0.4999999999999938
100
AcDbArc
 50
270.0
 51
0.0
  0
ARC
  5
286
330
1B
100
AcDbEntity
 67
     1
  8
0
  6
CONTINUOUS
 62
     7
100
AcDbCircle
 10
42.5
 20
26.5050336137
 30
0.0
 40
0.5000000000002558
100
AcDbArc
 50
100.7668635321
 51
180.0
  0
ARC
  5
287
330
1B
100
AcDbEntity
 67
     1
  8
0
  6
CONTINUOUS
 62
     7
100
AcDbCircle
 10
44.5
 20
26.8946437219
 30
0.0
 40
0.5000000000000142
100
AcDbArc
 50
0.0
 51
101.2800328568
  0
ARC
  5
288
330
1B
100
AcDbEntity
 67
     1
  8
0
  6
CONTINUOUS
 62
     7
100
AcDbCircle
 10
44.5
 20
0.5
 30
0.0
 40
0.5000000000000071
100
AcDbArc
 50
270.0
 51
0.0
  0
ARC
  5
289
330
1B
100
AcDbEntity
 67
     1
  8
0
  6
CONTINUOUS
 62
     7
100
AcDbCircle
 10
-44.5
 20
0.5
 30
0.0
 40
0.5000000000000071
100
AcDbArc
 50
180.0
 51
270.0
  0
VIEWPORT
  5
979
330
1B
100
AcDbEntity
 67
     1
  8
0
100
AcDbViewport
 10
0.0
 20
0.0
 30
0.0
 40
205.6
 41
156.0
 68
     1
 69
     1
1001
ACAD
1000
MVIEW
1002
{
1070
    16
1010
0.0
1020
0.0
1030
0.0
1010
0.0
1020
0.0
1030
1.0
1040
0.0
1040
596.5052109039
1040
353.5524304769
1040
-192.8681346605
1040
50.0
1040
0.0
1040
0.0
1070
     0
1070
   100
1070
     0
1070
     3
1070
     0
1070
     0
1070
     0
1070
     0
1040
0.0
1040
0.0
1040
0.0
1040
10.0
1040
10.0
1040
10.0
1040
10.0
1070
     0
1002
{
1002
}
1002
}
  0
ENDSEC
  0
SECTION
  2
OBJECTS
  0
DICTIONARY
  5
C
330
0
100
AcDbDictionary
  3
ACAD_GROUP
350
D
  3
ACAD_MLINESTYLE
350
17
  3
ACAD_SCALELIST
350
47
  3
DWGPROPS
350
98D
  0
DICTIONARY
  5
D
102
{ACAD_REACTORS
330
C
102
}
330
C
100
AcDbDictionary
  0
DICTIONARY
  5
17
102
{ACAD_REACTORS
330
C
102
}
330
C
100
AcDbDictionary
  3
STANDARD
350
18
  0
DICTIONARY
  5
47
102
{ACAD_REACTORS
330
C
102
}
330
C
100
AcDbDictionary
  0
XRECORD
  5
98D
102
{ACAD_REACTORS
330
C
102
}
330
C
100
AcDbXrecord
  1
DWGPROPS COOKIE
  2

  3

  4

  6

  7

  8
1
  9

300
=
301
=
302
=
303
=
304
=
305
=
306
=
307
=
308
=
309
=
 40
0.0
 41
2460164.511771817
 42
2460164.512648507
  1

 90
        0
  0
MLINESTYLE
  5
18
102
{ACAD_REACTORS
330
17
102
}
330
17
100
AcDbMlineStyle
  2
Standard
 70
     0
  3

 62
   256
 51
90.0
 52
90.0
 71
     2
 49
0.5
 62
   256
  6
BYLAYER
 49
-0.5
 62
   256
  6
BYLAYER
  0
ENDSEC
  0
EOF
