ISO-10303-21;
HEADER;
FILE_DESCRIPTION (( 'STEP AP214' ),
    '1' );
FILE_NAME ('AL-40õ3.STEP',
    '2024-01-18T11:25:02',
    ( '' ),
    ( '' ),
    'SwSTEP 2.0',
    'SolidWorks 2021',
    '' );
FILE_SCHEMA (( 'AUTOMOTIVE_DESIGN' ));
ENDSEC;

DATA;
#1 = APPLICATION_PROTOCOL_DEFINITION ( 'draft international standard', 'automotive_design', 1998, #166 ) ;
#2 = VERTEX_POINT ( 'NONE', #39 ) ;
#3 = FACE_OUTER_BOUND ( 'NONE', #141, .T. ) ;
#4 = DIRECTION ( 'NONE',  ( 0.000000000000000000, 0.000000000000000000, 1.000000000000000000 ) ) ;
#5 = ORIENTED_EDGE ( 'NONE', *, *, #184, .T. ) ;
#6 = DIRECTION ( 'NONE',  ( 0.000000000000000000, 0.000000000000000000, 1.000000000000000000 ) ) ;
#7 = DIRECTION ( 'NONE',  ( 1.000000000000000000, 0.000000000000000000, 0.000000000000000000 ) ) ;
#8 = CIRCLE ( 'NONE', #167, 17.00000000000000000 ) ;
#9 = CARTESIAN_POINT ( 'NONE',  ( -20.00000000000000355, 2.449293598294706907E-15, -100.0000000000000000 ) ) ;
#10 = FILL_AREA_STYLE ('',( #162 ) ) ;
#11 = ADVANCED_FACE ( 'NONE', ( #187 ), #42, .F. ) ;
#12 = CARTESIAN_POINT ( 'NONE',  ( 0.000000000000000000, 0.000000000000000000, -100.0000000000000000 ) ) ;
#13 = CIRCLE ( 'NONE', #165, 17.00000000000000000 ) ;
#14 = PRODUCT_CONTEXT ( 'NONE', #166, 'mechanical' ) ;
#15 = EDGE_LOOP ( 'NONE', ( #87, #22, #199, #174 ) ) ;
#16 = ORIENTED_EDGE ( 'NONE', *, *, #17, .T. ) ;
#17 = EDGE_CURVE ( 'NONE', #90, #20, #13, .T. ) ;
#18 = MECHANICAL_DESIGN_GEOMETRIC_PRESENTATION_REPRESENTATION (  '', ( #81 ), #163 ) ;
#19 = CIRCLE ( 'NONE', #23, 20.00000000000000355 ) ;
#20 = VERTEX_POINT ( 'NONE', #144 ) ;
#21 = DIRECTION ( 'NONE',  ( 1.000000000000000000, 0.000000000000000000, 0.000000000000000000 ) ) ;
#22 = ORIENTED_EDGE ( 'NONE', *, *, #97, .T. ) ;
#23 = AXIS2_PLACEMENT_3D ( 'NONE', #68, #151, #176 ) ;
#24 = DIRECTION ( 'NONE',  ( 0.000000000000000000, 0.000000000000000000, 1.000000000000000000 ) ) ;
#25 = ORIENTED_EDGE ( 'NONE', *, *, #74, .F. ) ;
#26 = COLOUR_RGB ( '',0.8980392156862745390, 0.9176470588235293713, 0.9294117647058823817 ) ;
#27 =( LENGTH_UNIT ( ) NAMED_UNIT ( * ) SI_UNIT ( .MILLI., .METRE. ) );
#28 = UNCERTAINTY_MEASURE_WITH_UNIT (LENGTH_MEASURE( 1.000000000000000082E-05 ), #95, 'distance_accuracy_value', 'NONE');
#29 = DIRECTION ( 'NONE',  ( 1.000000000000000000, 0.000000000000000000, 0.000000000000000000 ) ) ;
#30 = AXIS2_PLACEMENT_3D ( 'NONE', #109, #59, #206 ) ;
#31 = PRODUCT_DEFINITION_FORMATION_WITH_SPECIFIED_SOURCE ( 'ANY', '', #93, .NOT_KNOWN. ) ;
#32 = EDGE_LOOP ( 'NONE', ( #72, #34 ) ) ;
#33 = UNCERTAINTY_MEASURE_WITH_UNIT (LENGTH_MEASURE( 1.000000000000000082E-05 ), #154, 'distance_accuracy_value', 'NONE');
#34 = ORIENTED_EDGE ( 'NONE', *, *, #60, .F. ) ;
#35 = PRESENTATION_STYLE_ASSIGNMENT (( #83 ) ) ;
#36 = ORIENTED_EDGE ( 'NONE', *, *, #118, .F. ) ;
#37 = PRODUCT_RELATED_PRODUCT_CATEGORY ( 'part', '', ( #93 ) ) ;
#38 = VERTEX_POINT ( 'NONE', #146 ) ;
#39 = CARTESIAN_POINT ( 'NONE',  ( -20.00000000000000355, 2.449293598294706907E-15, 0.000000000000000000 ) ) ;
#40 = AXIS2_PLACEMENT_3D ( 'NONE', #12, #47, #198 ) ;
#41 = EDGE_CURVE ( 'NONE', #86, #123, #145, .T. ) ;
#42 = CYLINDRICAL_SURFACE ( 'NONE', #50, 17.00000000000000000 ) ;
#43 = DIRECTION ( 'NONE',  ( 0.000000000000000000, 0.000000000000000000, 1.000000000000000000 ) ) ;
#44 = DIRECTION ( 'NONE',  ( 0.000000000000000000, 0.000000000000000000, 1.000000000000000000 ) ) ;
#45 = AXIS2_PLACEMENT_3D ( 'NONE', #113, #202, #7 ) ;
#46 = CARTESIAN_POINT ( 'NONE',  ( 17.00000000000000000, 0.000000000000000000, -100.0000000000000000 ) ) ;
#47 = DIRECTION ( 'NONE',  ( 0.000000000000000000, 0.000000000000000000, 1.000000000000000000 ) ) ;
#48 = DIRECTION ( 'NONE',  ( 0.000000000000000000, 0.000000000000000000, 1.000000000000000000 ) ) ;
#49 = CARTESIAN_POINT ( 'NONE',  ( 20.00000000000000355, 0.000000000000000000, 0.000000000000000000 ) ) ;
#50 = AXIS2_PLACEMENT_3D ( 'NONE', #159, #4, #21 ) ;
#51 =( NAMED_UNIT ( * ) SI_UNIT ( $, .STERADIAN. ) SOLID_ANGLE_UNIT ( ) );
#52 = ADVANCED_FACE ( 'NONE', ( #3 ), #203, .T. ) ;
#53 = ORIENTED_EDGE ( 'NONE', *, *, #185, .T. ) ;
#54 = ORIENTED_EDGE ( 'NONE', *, *, #97, .F. ) ;
#55 = DIRECTION ( 'NONE',  ( 1.000000000000000000, 0.000000000000000000, 0.000000000000000000 ) ) ;
#56 =( GEOMETRIC_REPRESENTATION_CONTEXT ( 3 ) GLOBAL_UNCERTAINTY_ASSIGNED_CONTEXT ( ( #28 ) ) GLOBAL_UNIT_ASSIGNED_CONTEXT ( ( #95, #209, #62 ) ) REPRESENTATION_CONTEXT ( 'NONE', 'WORKASPACE' ) );
#57 = CARTESIAN_POINT ( 'NONE',  ( 0.000000000000000000, 0.000000000000000000, 0.000000000000000000 ) ) ;
#58 = DIRECTION ( 'NONE',  ( 1.000000000000000000, 0.000000000000000000, -0.000000000000000000 ) ) ;
#59 = DIRECTION ( 'NONE',  ( 0.000000000000000000, 0.000000000000000000, 1.000000000000000000 ) ) ;
#60 = EDGE_CURVE ( 'NONE', #123, #86, #8, .T. ) ;
#61 = AXIS2_PLACEMENT_3D ( 'NONE', #115, #79, #177 ) ;
#62 =( NAMED_UNIT ( * ) SI_UNIT ( $, .STERADIAN. ) SOLID_ANGLE_UNIT ( ) );
#63 = PRESENTATION_STYLE_ASSIGNMENT (( #80 ) ) ;
#64 = EDGE_CURVE ( 'NONE', #2, #136, #76, .T. ) ;
#65 = FACE_OUTER_BOUND ( 'NONE', #70, .T. ) ;
#66 = VECTOR ( 'NONE', #48, 1000.000000000000000 ) ;
#67 = DIRECTION ( 'NONE',  ( 0.000000000000000000, 0.000000000000000000, 1.000000000000000000 ) ) ;
#68 = CARTESIAN_POINT ( 'NONE',  ( 0.000000000000000000, 0.000000000000000000, -100.0000000000000000 ) ) ;
#69 = FILL_AREA_STYLE ('',( #212 ) ) ;
#70 = EDGE_LOOP ( 'NONE', ( #36, #89, #53, #84 ) ) ;
#71 = DIRECTION ( 'NONE',  ( 1.000000000000000000, 0.000000000000000000, 0.000000000000000000 ) ) ;
#72 = ORIENTED_EDGE ( 'NONE', *, *, #41, .F. ) ;
#73 = CARTESIAN_POINT ( 'NONE',  ( 0.000000000000000000, 0.000000000000000000, 0.000000000000000000 ) ) ;
#74 = EDGE_CURVE ( 'NONE', #182, #38, #200, .T. ) ;
#75 = PLANE ( 'NONE',  #204 ) ;
#76 = CIRCLE ( 'NONE', #94, 20.00000000000000355 ) ;
#77 = AXIS2_PLACEMENT_3D ( 'NONE', #129, #188, #110 ) ;
#78 = CARTESIAN_POINT ( 'NONE',  ( -20.00000000000000355, 2.449293598294706907E-15, -100.0000000000000000 ) ) ;
#79 = DIRECTION ( 'NONE',  ( 0.000000000000000000, 0.000000000000000000, 1.000000000000000000 ) ) ;
#80 = SURFACE_STYLE_USAGE ( .BOTH. , #135 ) ;
#81 = STYLED_ITEM ( 'NONE', ( #35 ), #116 ) ;
#82 = FACE_OUTER_BOUND ( 'NONE', #192, .T. ) ;
#83 = SURFACE_STYLE_USAGE ( .BOTH. , #124 ) ;
#84 = ORIENTED_EDGE ( 'NONE', *, *, #64, .F. ) ;
#85 = ADVANCED_FACE ( 'NONE', ( #171, #160 ), #75, .T. ) ;
#86 = VERTEX_POINT ( 'NONE', #130 ) ;
#87 = ORIENTED_EDGE ( 'NONE', *, *, #137, .F. ) ;
#88 = EDGE_LOOP ( 'NONE', ( #16, #125 ) ) ;
#89 = ORIENTED_EDGE ( 'NONE', *, *, #74, .T. ) ;
#90 = VERTEX_POINT ( 'NONE', #46 ) ;
#91 = EDGE_LOOP ( 'NONE', ( #157, #126 ) ) ;
#92 = SURFACE_STYLE_FILL_AREA ( #10 ) ;
#93 = PRODUCT ( 'AL-40õ3', 'AL-40õ3', '', ( #14 ) ) ;
#94 = AXIS2_PLACEMENT_3D ( 'NONE', #57, #186, #55 ) ;
#95 =( LENGTH_UNIT ( ) NAMED_UNIT ( * ) SI_UNIT ( .MILLI., .METRE. ) );
#96 = CARTESIAN_POINT ( 'NONE',  ( 0.000000000000000000, 0.000000000000000000, -100.0000000000000000 ) ) ;
#97 = EDGE_CURVE ( 'NONE', #20, #123, #189, .T. ) ;
#98 = MECHANICAL_DESIGN_GEOMETRIC_PRESENTATION_REPRESENTATION (  '', ( #156 ), #56 ) ;
#99 = VECTOR ( 'NONE', #44, 1000.000000000000000 ) ;
#100 =( NAMED_UNIT ( * ) PLANE_ANGLE_UNIT ( ) SI_UNIT ( $, .RADIAN. ) );
#101 = ORIENTED_EDGE ( 'NONE', *, *, #118, .T. ) ;
#102 = DIRECTION ( 'NONE',  ( 1.000000000000000000, 0.000000000000000000, 0.000000000000000000 ) ) ;
#103 = EDGE_LOOP ( 'NONE', ( #54, #104, #106, #128 ) ) ;
#104 = ORIENTED_EDGE ( 'NONE', *, *, #17, .F. ) ;
#105 = EDGE_CURVE ( 'NONE', #90, #86, #112, .T. ) ;
#106 = ORIENTED_EDGE ( 'NONE', *, *, #105, .T. ) ;
#107 =( GEOMETRIC_REPRESENTATION_CONTEXT ( 3 ) GLOBAL_UNCERTAINTY_ASSIGNED_CONTEXT ( ( #197 ) ) GLOBAL_UNIT_ASSIGNED_CONTEXT ( ( #27, #211, #193 ) ) REPRESENTATION_CONTEXT ( 'NONE', 'WORKASPACE' ) );
#108 = PRESENTATION_LAYER_ASSIGNMENT (  '', '', ( #156 ) ) ;
#109 = CARTESIAN_POINT ( 'NONE',  ( 0.000000000000000000, 0.000000000000000000, 0.000000000000000000 ) ) ;
#110 = DIRECTION ( 'NONE',  ( 1.000000000000000000, 0.000000000000000000, 0.000000000000000000 ) ) ;
#111 = EDGE_CURVE ( 'NONE', #136, #2, #127, .T. ) ;
#112 = LINE ( 'NONE', #173, #208 ) ;
#113 = CARTESIAN_POINT ( 'NONE',  ( 0.000000000000000000, 0.000000000000000000, -100.0000000000000000 ) ) ;
#114 = PRODUCT_DEFINITION ( 'UNKNOWN', '', #31, #119 ) ;
#115 = CARTESIAN_POINT ( 'NONE',  ( 0.000000000000000000, 0.000000000000000000, -100.0000000000000000 ) ) ;
#116 = ADVANCED_BREP_SHAPE_REPRESENTATION ( 'AL-40¿3', ( #143, #195 ), #107 ) ;
#117 = CARTESIAN_POINT ( 'NONE',  ( -17.00000000000000000, 2.081899558550500280E-15, 0.000000000000000000 ) ) ;
#118 = EDGE_CURVE ( 'NONE', #182, #2, #152, .T. ) ;
#119 = PRODUCT_DEFINITION_CONTEXT ( 'detailed design', #190, 'design' ) ;
#120 = FACE_BOUND ( 'NONE', #88, .T. ) ;
#121 = APPLICATION_PROTOCOL_DEFINITION ( 'draft international standard', 'automotive_design', 1998, #190 ) ;
#122 = VECTOR ( 'NONE', #164, 1000.000000000000000 ) ;
#123 = VERTEX_POINT ( 'NONE', #117 ) ;
#124 = SURFACE_SIDE_STYLE ('',( #139 ) ) ;
#125 = ORIENTED_EDGE ( 'NONE', *, *, #137, .T. ) ;
#126 = ORIENTED_EDGE ( 'NONE', *, *, #64, .T. ) ;
#127 = CIRCLE ( 'NONE', #169, 20.00000000000000355 ) ;
#128 = ORIENTED_EDGE ( 'NONE', *, *, #41, .T. ) ;
#129 = CARTESIAN_POINT ( 'NONE',  ( 0.000000000000000000, 0.000000000000000000, -100.0000000000000000 ) ) ;
#130 = CARTESIAN_POINT ( 'NONE',  ( 17.00000000000000000, 0.000000000000000000, 0.000000000000000000 ) ) ;
#131 = CARTESIAN_POINT ( 'NONE',  ( 0.000000000000000000, 0.000000000000000000, -100.0000000000000000 ) ) ;
#132 = LINE ( 'NONE', #153, #66 ) ;
#133 = FACE_OUTER_BOUND ( 'NONE', #103, .T. ) ;
#134 = DIRECTION ( 'NONE',  ( 1.000000000000000000, 0.000000000000000000, 0.000000000000000000 ) ) ;
#135 = SURFACE_SIDE_STYLE ('',( #92 ) ) ;
#136 = VERTEX_POINT ( 'NONE', #49 ) ;
#137 = EDGE_CURVE ( 'NONE', #20, #90, #191, .T. ) ;
#138 = AXIS2_PLACEMENT_3D ( 'NONE', #179, #178, #29 ) ;
#139 = SURFACE_STYLE_FILL_AREA ( #69 ) ;
#140 = CARTESIAN_POINT ( 'NONE',  ( 0.000000000000000000, 0.000000000000000000, 0.000000000000000000 ) ) ;
#141 = EDGE_LOOP ( 'NONE', ( #5, #101, #158, #168 ) ) ;
#142 = DIRECTION ( 'NONE',  ( 0.000000000000000000, 0.000000000000000000, 1.000000000000000000 ) ) ;
#143 = MANIFOLD_SOLID_BREP ( 'Áîáûøêà-Âûòÿíóòü1', #213 ) ;
#144 = CARTESIAN_POINT ( 'NONE',  ( -17.00000000000000000, 2.081899558550500280E-15, -100.0000000000000000 ) ) ;
#145 = CIRCLE ( 'NONE', #30, 17.00000000000000000 ) ;
#146 = CARTESIAN_POINT ( 'NONE',  ( 20.00000000000000355, 0.000000000000000000, -100.0000000000000000 ) ) ;
#147 = ORIENTED_EDGE ( 'NONE', *, *, #184, .F. ) ;
#148 = CARTESIAN_POINT ( 'NONE',  ( -17.00000000000000000, 2.081899558550500280E-15, -100.0000000000000000 ) ) ;
#149 = ADVANCED_FACE ( 'NONE', ( #120, #82 ), #210, .F. ) ;
#150 = AXIS2_PLACEMENT_3D ( 'NONE', #96, #67, #134 ) ;
#151 = DIRECTION ( 'NONE',  ( 0.000000000000000000, 0.000000000000000000, 1.000000000000000000 ) ) ;
#152 = LINE ( 'NONE', #9, #122 ) ;
#153 = CARTESIAN_POINT ( 'NONE',  ( 20.00000000000000355, 0.000000000000000000, -100.0000000000000000 ) ) ;
#154 =( LENGTH_UNIT ( ) NAMED_UNIT ( * ) SI_UNIT ( .MILLI., .METRE. ) );
#155 = ADVANCED_FACE ( 'NONE', ( #65 ), #194, .T. ) ;
#156 = STYLED_ITEM ( 'NONE', ( #63 ), #143 ) ;
#157 = ORIENTED_EDGE ( 'NONE', *, *, #111, .T. ) ;
#158 = ORIENTED_EDGE ( 'NONE', *, *, #111, .F. ) ;
#159 = CARTESIAN_POINT ( 'NONE',  ( 0.000000000000000000, 0.000000000000000000, -100.0000000000000000 ) ) ;
#160 = FACE_OUTER_BOUND ( 'NONE', #91, .T. ) ;
#161 = CARTESIAN_POINT ( 'NONE',  ( 0.000000000000000000, 0.000000000000000000, 0.000000000000000000 ) ) ;
#162 = FILL_AREA_STYLE_COLOUR ( '', #26 ) ;
#163 =( GEOMETRIC_REPRESENTATION_CONTEXT ( 3 ) GLOBAL_UNCERTAINTY_ASSIGNED_CONTEXT ( ( #33 ) ) GLOBAL_UNIT_ASSIGNED_CONTEXT ( ( #154, #100, #51 ) ) REPRESENTATION_CONTEXT ( 'NONE', 'WORKASPACE' ) );
#164 = DIRECTION ( 'NONE',  ( 0.000000000000000000, 0.000000000000000000, 1.000000000000000000 ) ) ;
#165 = AXIS2_PLACEMENT_3D ( 'NONE', #131, #142, #71 ) ;
#166 = APPLICATION_CONTEXT ( 'automotive_design' ) ;
#167 = AXIS2_PLACEMENT_3D ( 'NONE', #170, #43, #205 ) ;
#168 = ORIENTED_EDGE ( 'NONE', *, *, #185, .F. ) ;
#169 = AXIS2_PLACEMENT_3D ( 'NONE', #161, #207, #196 ) ;
#170 = CARTESIAN_POINT ( 'NONE',  ( 0.000000000000000000, 0.000000000000000000, 0.000000000000000000 ) ) ;
#171 = FACE_BOUND ( 'NONE', #32, .T. ) ;
#172 = COLOUR_RGB ( '',0.8980392156862745390, 0.9176470588235293713, 0.9294117647058823817 ) ;
#173 = CARTESIAN_POINT ( 'NONE',  ( 17.00000000000000000, 0.000000000000000000, -100.0000000000000000 ) ) ;
#174 = ORIENTED_EDGE ( 'NONE', *, *, #105, .F. ) ;
#175 = CYLINDRICAL_SURFACE ( 'NONE', #138, 17.00000000000000000 ) ;
#176 = DIRECTION ( 'NONE',  ( 1.000000000000000000, 0.000000000000000000, 0.000000000000000000 ) ) ;
#177 = DIRECTION ( 'NONE',  ( 1.000000000000000000, 0.000000000000000000, -0.000000000000000000 ) ) ;
#178 = DIRECTION ( 'NONE',  ( 0.000000000000000000, 0.000000000000000000, 1.000000000000000000 ) ) ;
#179 = CARTESIAN_POINT ( 'NONE',  ( 0.000000000000000000, 0.000000000000000000, -100.0000000000000000 ) ) ;
#180 = PRODUCT_DEFINITION_SHAPE ( 'NONE', 'NONE',  #114 ) ;
#181 = SHAPE_DEFINITION_REPRESENTATION ( #180, #116 ) ;
#182 = VERTEX_POINT ( 'NONE', #78 ) ;
#183 = DIRECTION ( 'NONE',  ( 0.000000000000000000, 0.000000000000000000, 1.000000000000000000 ) ) ;
#184 = EDGE_CURVE ( 'NONE', #38, #182, #19, .T. ) ;
#185 = EDGE_CURVE ( 'NONE', #38, #136, #132, .T. ) ;
#186 = DIRECTION ( 'NONE',  ( 0.000000000000000000, 0.000000000000000000, 1.000000000000000000 ) ) ;
#187 = FACE_OUTER_BOUND ( 'NONE', #15, .T. ) ;
#188 = DIRECTION ( 'NONE',  ( 0.000000000000000000, 0.000000000000000000, 1.000000000000000000 ) ) ;
#189 = LINE ( 'NONE', #148, #99 ) ;
#190 = APPLICATION_CONTEXT ( 'automotive_design' ) ;
#191 = CIRCLE ( 'NONE', #40, 17.00000000000000000 ) ;
#192 = EDGE_LOOP ( 'NONE', ( #147, #25 ) ) ;
#193 =( NAMED_UNIT ( * ) SI_UNIT ( $, .STERADIAN. ) SOLID_ANGLE_UNIT ( ) );
#194 = CYLINDRICAL_SURFACE ( 'NONE', #150, 20.00000000000000355 ) ;
#195 = AXIS2_PLACEMENT_3D ( 'NONE', #140, #183, #102 ) ;
#196 = DIRECTION ( 'NONE',  ( 1.000000000000000000, 0.000000000000000000, 0.000000000000000000 ) ) ;
#197 = UNCERTAINTY_MEASURE_WITH_UNIT (LENGTH_MEASURE( 1.000000000000000082E-05 ), #27, 'distance_accuracy_value', 'NONE');
#198 = DIRECTION ( 'NONE',  ( 1.000000000000000000, 0.000000000000000000, 0.000000000000000000 ) ) ;
#199 = ORIENTED_EDGE ( 'NONE', *, *, #60, .T. ) ;
#200 = CIRCLE ( 'NONE', #77, 20.00000000000000355 ) ;
#201 = PRESENTATION_LAYER_ASSIGNMENT (  '', '', ( #81 ) ) ;
#202 = DIRECTION ( 'NONE',  ( 0.000000000000000000, 0.000000000000000000, 1.000000000000000000 ) ) ;
#203 = CYLINDRICAL_SURFACE ( 'NONE', #45, 20.00000000000000355 ) ;
#204 = AXIS2_PLACEMENT_3D ( 'NONE', #73, #6, #58 ) ;
#205 = DIRECTION ( 'NONE',  ( 1.000000000000000000, 0.000000000000000000, 0.000000000000000000 ) ) ;
#206 = DIRECTION ( 'NONE',  ( 1.000000000000000000, 0.000000000000000000, 0.000000000000000000 ) ) ;
#207 = DIRECTION ( 'NONE',  ( 0.000000000000000000, 0.000000000000000000, 1.000000000000000000 ) ) ;
#208 = VECTOR ( 'NONE', #24, 1000.000000000000000 ) ;
#209 =( NAMED_UNIT ( * ) PLANE_ANGLE_UNIT ( ) SI_UNIT ( $, .RADIAN. ) );
#210 = PLANE ( 'NONE',  #61 ) ;
#211 =( NAMED_UNIT ( * ) PLANE_ANGLE_UNIT ( ) SI_UNIT ( $, .RADIAN. ) );
#212 = FILL_AREA_STYLE_COLOUR ( '', #172 ) ;
#213 = CLOSED_SHELL ( 'NONE', ( #11, #52, #155, #149, #85, #214 ) ) ;
#214 = ADVANCED_FACE ( 'NONE', ( #133 ), #175, .F. ) ;
ENDSEC;
END-ISO-10303-21;
