ISO-10303-21;
HEADER;
FILE_DESCRIPTION (( 'STEP AP203' ),
    '1' );
FILE_NAME ('AL–D28õ3–À-6 Òðóáà àëþìèíèåâàÿ D28õ3 àíîäèðîâàííàÿ.STEP',
    '2023-09-12T10:52:33',
    ( '' ),
    ( '' ),
    'SwSTEP 2.0',
    'SolidWorks 2021',
    '' );
FILE_SCHEMA (( 'CONFIG_CONTROL_DESIGN' ));
ENDSEC;

DATA;
#1 = PERSON ( 'UNSPECIFIED', 'UNSPECIFIED', 'UNSPECIFIED', ('UNSPECIFIED'), ('UNSPECIFIED'), ('UNSPECIFIED') ) ;
#2 = MECHANICAL_CONTEXT ( 'NONE', #220, 'mechanical' ) ;
#3 = EDGE_CURVE ( 'NONE', #166, #136, #51, .T. ) ;
#4 = ORGANIZATION ( 'UNSPECIFIED', 'UNSPECIFIED', '' ) ;
#5 = ADVANCED_BREP_SHAPE_REPRESENTATION ( 'ALÖD28¿3ÖL-6 T¨ºñð ðû¦üøýøõòð  D28¿3 ðýþôø¨þòðýýð ', ( #164, #114 ), #88 ) ;
#6 = CIRCLE ( 'NONE', #73, 11.00000000000000000 ) ;
#7 = DIRECTION ( 'NONE',  ( 0.000000000000000000, 0.000000000000000000, 1.000000000000000000 ) ) ;
#8 = DESIGN_CONTEXT ( 'detailed design', #18, 'design' ) ;
#9 = APPROVAL_DATE_TIME ( #141, #226 ) ;
#10 = CALENDAR_DATE ( 2023, 12, 9 ) ;
#11 = ADVANCED_FACE ( 'NONE', ( #53 ), #147, .F. ) ;
#12 = CARTESIAN_POINT ( 'NONE',  ( 11.00000000000000000, 1.347111479062088405E-15, 0.000000000000000000 ) ) ;
#13 = ORIENTED_EDGE ( 'NONE', *, *, #28, .F. ) ;
#14 = LOCAL_TIME ( 13, 52, 33.00000000000000000, #180 ) ;
#15 = AXIS2_PLACEMENT_3D ( 'NONE', #58, #79, #171 ) ;
#16 = DIRECTION ( 'NONE',  ( 1.000000000000000000, 0.000000000000000000, -0.000000000000000000 ) ) ;
#17 = EDGE_LOOP ( 'NONE', ( #131, #149, #54, #203 ) ) ;
#18 = APPLICATION_CONTEXT ( 'configuration controlled 3d designs of mechanical parts and assemblies' ) ;
#19 = VERTEX_POINT ( 'NONE', #12 ) ;
#20 = DIRECTION ( 'NONE',  ( -0.000000000000000000, -0.000000000000000000, -1.000000000000000000 ) ) ;
#21 = EDGE_CURVE ( 'NONE', #78, #187, #148, .T. ) ;
#22 = AXIS2_PLACEMENT_3D ( 'NONE', #186, #128, #209 ) ;
#23 =( NAMED_UNIT ( * ) SI_UNIT ( $, .STERADIAN. ) SOLID_ANGLE_UNIT ( ) );
#24 = DIRECTION ( 'NONE',  ( -0.000000000000000000, -0.000000000000000000, -1.000000000000000000 ) ) ;
#25 = PERSON_AND_ORGANIZATION ( #1, #4 ) ;
#26 = DATE_AND_TIME ( #48, #239 ) ;
#27 = CC_DESIGN_APPROVAL ( #196, ( #95 ) ) ;
#28 = EDGE_CURVE ( 'NONE', #236, #19, #104, .T. ) ;
#29 = SECURITY_CLASSIFICATION_LEVEL ( 'unclassified' ) ;
#30 = VECTOR ( 'NONE', #20, 1000.000000000000000 ) ;
#31 = CARTESIAN_POINT ( 'NONE',  ( -11.00000000000000000, 0.000000000000000000, 6000.000000000000000 ) ) ;
#32 = DIRECTION ( 'NONE',  ( 0.000000000000000000, 0.000000000000000000, 1.000000000000000000 ) ) ;
#33 = DIRECTION ( 'NONE',  ( 0.000000000000000000, 0.000000000000000000, 1.000000000000000000 ) ) ;
#34 = APPROVAL ( #122, 'UNSPECIFIED' ) ;
#35 = CARTESIAN_POINT ( 'NONE',  ( 0.000000000000000000, 0.000000000000000000, 6000.000000000000000 ) ) ;
#36 = CARTESIAN_POINT ( 'NONE',  ( 0.000000000000000000, 0.000000000000000000, 6000.000000000000000 ) ) ;
#37 = DIRECTION ( 'NONE',  ( -1.000000000000000000, 0.000000000000000000, 0.000000000000000000 ) ) ;
#38 = ORIENTED_EDGE ( 'NONE', *, *, #144, .T. ) ;
#39 = CARTESIAN_POINT ( 'NONE',  ( 14.00000000000000178, 1.714505518806294835E-15, 6000.000000000000000 ) ) ;
#40 = ORIENTED_EDGE ( 'NONE', *, *, #21, .T. ) ;
#41 = CYLINDRICAL_SURFACE ( 'NONE', #129, 14.00000000000000178 ) ;
#42 = DIRECTION ( 'NONE',  ( 1.000000000000000000, 0.000000000000000000, 0.000000000000000000 ) ) ;
#43 = PERSON_AND_ORGANIZATION ( #1, #4 ) ;
#44 = EDGE_CURVE ( 'NONE', #246, #247, #167, .T. ) ;
#45 = DATE_TIME_ROLE ( 'classification_date' ) ;
#46 = DATE_TIME_ROLE ( 'creation_date' ) ;
#47 = AXIS2_PLACEMENT_3D ( 'NONE', #130, #210, #16 ) ;
#48 = CALENDAR_DATE ( 2023, 12, 9 ) ;
#49 = LINE ( 'NONE', #57, #191 ) ;
#50 = APPROVAL_PERSON_ORGANIZATION ( #62, #226, #143 ) ;
#51 = CIRCLE ( 'NONE', #183, 14.00000000000000178 ) ;
#52 = VECTOR ( 'NONE', #194, 1000.000000000000000 ) ;
#53 = FACE_OUTER_BOUND ( 'NONE', #17, .T. ) ;
#54 = ORIENTED_EDGE ( 'NONE', *, *, #99, .T. ) ;
#55 = ADVANCED_FACE ( 'NONE', ( #110, #56 ), #153, .T. ) ;
#56 = FACE_BOUND ( 'NONE', #230, .T. ) ;
#57 = CARTESIAN_POINT ( 'NONE',  ( -14.00000000000000178, 0.000000000000000000, 6000.000000000000000 ) ) ;
#58 = CARTESIAN_POINT ( 'NONE',  ( 0.000000000000000000, 0.000000000000000000, 6000.000000000000000 ) ) ;
#59 = ORIENTED_EDGE ( 'NONE', *, *, #28, .T. ) ;
#60 = EDGE_CURVE ( 'NONE', #187, #78, #85, .T. ) ;
#61 = FACE_BOUND ( 'NONE', #93, .T. ) ;
#62 = PERSON_AND_ORGANIZATION ( #1, #4 ) ;
#63 = ORIENTED_EDGE ( 'NONE', *, *, #44, .F. ) ;
#64 = FACE_OUTER_BOUND ( 'NONE', #227, .T. ) ;
#65 = PERSON_AND_ORGANIZATION ( #1, #4 ) ;
#66 = EDGE_CURVE ( 'NONE', #19, #236, #6, .T. ) ;
#67 = APPROVAL_PERSON_ORGANIZATION ( #199, #34, #74 ) ;
#68 = CIRCLE ( 'NONE', #162, 14.00000000000000178 ) ;
#69 = EDGE_CURVE ( 'NONE', #136, #187, #49, .T. ) ;
#70 = CALENDAR_DATE ( 2023, 12, 9 ) ;
#71 = PERSON_AND_ORGANIZATION ( #1, #4 ) ;
#72 = LOCAL_TIME ( 13, 52, 33.00000000000000000, #106 ) ;
#73 = AXIS2_PLACEMENT_3D ( 'NONE', #109, #33, #92 ) ;
#74 = APPROVAL_ROLE ( '' ) ;
#75 = ORIENTED_EDGE ( 'NONE', *, *, #218, .F. ) ;
#76 = ADVANCED_FACE ( 'NONE', ( #89 ), #189, .T. ) ;
#77 = EDGE_LOOP ( 'NONE', ( #91, #208, #13, #245 ) ) ;
#78 = VERTEX_POINT ( 'NONE', #184 ) ;
#79 = DIRECTION ( 'NONE',  ( 0.000000000000000000, 0.000000000000000000, 1.000000000000000000 ) ) ;
#80 = DIRECTION ( 'NONE',  ( 1.000000000000000000, 0.000000000000000000, 0.000000000000000000 ) ) ;
#81 = APPLICATION_PROTOCOL_DEFINITION ( 'international standard', 'config_control_design', 1994, #18 ) ;
#82 = ORIENTED_EDGE ( 'NONE', *, *, #3, .T. ) ;
#83 = CC_DESIGN_DATE_AND_TIME_ASSIGNMENT ( #224, #45, ( #182 ) ) ;
#84 = CARTESIAN_POINT ( 'NONE',  ( 0.000000000000000000, 0.000000000000000000, 0.000000000000000000 ) ) ;
#85 = CIRCLE ( 'NONE', #223, 14.00000000000000178 ) ;
#86 = DATE_AND_TIME ( #163, #160 ) ;
#87 = APPROVAL_DATE_TIME ( #86, #196 ) ;
#88 =( GEOMETRIC_REPRESENTATION_CONTEXT ( 3 ) GLOBAL_UNCERTAINTY_ASSIGNED_CONTEXT ( ( #204 ) ) GLOBAL_UNIT_ASSIGNED_CONTEXT ( ( #179, #235, #23 ) ) REPRESENTATION_CONTEXT ( 'NONE', 'WORKASPACE' ) );
#89 = FACE_OUTER_BOUND ( 'NONE', #139, .T. ) ;
#90 = EDGE_CURVE ( 'NONE', #136, #166, #68, .T. ) ;
#91 = ORIENTED_EDGE ( 'NONE', *, *, #218, .T. ) ;
#92 = DIRECTION ( 'NONE',  ( 1.000000000000000000, 0.000000000000000000, 0.000000000000000000 ) ) ;
#93 = EDGE_LOOP ( 'NONE', ( #59, #233 ) ) ;
#94 = DIRECTION ( 'NONE',  ( 0.000000000000000000, 0.000000000000000000, 1.000000000000000000 ) ) ;
#95 = PRODUCT_DEFINITION_FORMATION_WITH_SPECIFIED_SOURCE ( 'ANY', '', #101, .NOT_KNOWN. ) ;
#96 = AXIS2_PLACEMENT_3D ( 'NONE', #238, #156, #178 ) ;
#97 = CARTESIAN_POINT ( 'NONE',  ( 14.00000000000000178, 1.714505518806294835E-15, 6000.000000000000000 ) ) ;
#98 = FACE_OUTER_BOUND ( 'NONE', #150, .T. ) ;
#99 = EDGE_CURVE ( 'NONE', #247, #236, #145, .T. ) ;
#100 = LINE ( 'NONE', #135, #202 ) ;
#101 = PRODUCT ( 'AL–D28õ3–À-6 Òðóáà àëþìèíèåâàÿ D28õ3 àíîäèðîâàííàÿ', 'AL–D28õ3–À-6 Òðóáà àëþìèíèåâàÿ D28õ3 àíîäèðîâàííàÿ', '', ( #2 ) ) ;
#102 = PERSON_AND_ORGANIZATION_ROLE ( 'creator' ) ;
#103 = APPROVAL_DATE_TIME ( #26, #34 ) ;
#104 = CIRCLE ( 'NONE', #244, 11.00000000000000000 ) ;
#105 = ADVANCED_FACE ( 'NONE', ( #98 ), #41, .T. ) ;
#106 = COORDINATED_UNIVERSAL_TIME_OFFSET ( 3, 0, .AHEAD. ) ;
#107 = ADVANCED_FACE ( 'NONE', ( #159 ), #174, .F. ) ;
#108 = DIRECTION ( 'NONE',  ( 0.000000000000000000, 0.000000000000000000, 1.000000000000000000 ) ) ;
#109 = CARTESIAN_POINT ( 'NONE',  ( 0.000000000000000000, 0.000000000000000000, 0.000000000000000000 ) ) ;
#110 = FACE_OUTER_BOUND ( 'NONE', #154, .T. ) ;
#111 = CLOSED_SHELL ( 'NONE', ( #107, #105, #55, #177, #76, #11 ) ) ;
#112 = DIRECTION ( 'NONE',  ( 1.000000000000000000, 0.000000000000000000, 0.000000000000000000 ) ) ;
#113 = CARTESIAN_POINT ( 'NONE',  ( 0.000000000000000000, 0.000000000000000000, 0.000000000000000000 ) ) ;
#114 = AXIS2_PLACEMENT_3D ( 'NONE', #119, #216, #42 ) ;
#115 = AXIS2_PLACEMENT_3D ( 'NONE', #152, #207, #206 ) ;
#116 = CARTESIAN_POINT ( 'NONE',  ( -11.00000000000000000, 0.000000000000000000, 6000.000000000000000 ) ) ;
#117 = CARTESIAN_POINT ( 'NONE',  ( -14.00000000000000178, 0.000000000000000000, 6000.000000000000000 ) ) ;
#118 = CARTESIAN_POINT ( 'NONE',  ( -11.00000000000000000, 0.000000000000000000, 0.000000000000000000 ) ) ;
#119 = CARTESIAN_POINT ( 'NONE',  ( 0.000000000000000000, 0.000000000000000000, 0.000000000000000000 ) ) ;
#120 = DATE_AND_TIME ( #10, #222 ) ;
#121 = PRODUCT_DEFINITION_SHAPE ( 'NONE', 'NONE',  #181 ) ;
#122 = APPROVAL_STATUS ( 'not_yet_approved' ) ;
#123 = AXIS2_PLACEMENT_3D ( 'NONE', #237, #7, #195 ) ;
#124 = COORDINATED_UNIVERSAL_TIME_OFFSET ( 3, 0, .AHEAD. ) ;
#125 = CC_DESIGN_PERSON_AND_ORGANIZATION_ASSIGNMENT ( #43, #161, ( #181 ) ) ;
#126 = PERSON_AND_ORGANIZATION ( #1, #4 ) ;
#127 = CC_DESIGN_APPROVAL ( #226, ( #181 ) ) ;
#128 = DIRECTION ( 'NONE',  ( -0.000000000000000000, -0.000000000000000000, -1.000000000000000000 ) ) ;
#129 = AXIS2_PLACEMENT_3D ( 'NONE', #234, #24, #37 ) ;
#130 = CARTESIAN_POINT ( 'NONE',  ( 0.000000000000000000, 0.000000000000000000, 6000.000000000000000 ) ) ;
#131 = ORIENTED_EDGE ( 'NONE', *, *, #188, .F. ) ;
#132 = DIRECTION ( 'NONE',  ( -0.000000000000000000, -0.000000000000000000, -1.000000000000000000 ) ) ;
#133 = ORIENTED_EDGE ( 'NONE', *, *, #21, .F. ) ;
#134 = CARTESIAN_POINT ( 'NONE',  ( 0.000000000000000000, 0.000000000000000000, 0.000000000000000000 ) ) ;
#135 = CARTESIAN_POINT ( 'NONE',  ( 11.00000000000000000, 1.347111479062088405E-15, 6000.000000000000000 ) ) ;
#136 = VERTEX_POINT ( 'NONE', #117 ) ;
#137 = PRODUCT_RELATED_PRODUCT_CATEGORY ( 'detail', '', ( #101 ) ) ;
#138 = APPROVAL_STATUS ( 'not_yet_approved' ) ;
#139 = EDGE_LOOP ( 'NONE', ( #228, #212, #165, #232 ) ) ;
#140 = PERSON_AND_ORGANIZATION_ROLE ( 'design_owner' ) ;
#141 = DATE_AND_TIME ( #219, #14 ) ;
#142 = COORDINATED_UNIVERSAL_TIME_OFFSET ( 3, 0, .AHEAD. ) ;
#143 = APPROVAL_ROLE ( '' ) ;
#144 = EDGE_CURVE ( 'NONE', #166, #78, #215, .T. ) ;
#145 = LINE ( 'NONE', #31, #52 ) ;
#146 = CIRCLE ( 'NONE', #123, 11.00000000000000000 ) ;
#147 = CYLINDRICAL_SURFACE ( 'NONE', #115, 11.00000000000000000 ) ;
#148 = CIRCLE ( 'NONE', #176, 14.00000000000000178 ) ;
#149 = ORIENTED_EDGE ( 'NONE', *, *, #44, .T. ) ;
#150 = EDGE_LOOP ( 'NONE', ( #225, #38, #40, #229 ) ) ;
#151 = CC_DESIGN_DATE_AND_TIME_ASSIGNMENT ( #120, #46, ( #181 ) ) ;
#152 = CARTESIAN_POINT ( 'NONE',  ( 0.000000000000000000, 0.000000000000000000, 6000.000000000000000 ) ) ;
#153 = PLANE ( 'NONE',  #47 ) ;
#154 = EDGE_LOOP ( 'NONE', ( #243, #82 ) ) ;
#155 = CC_DESIGN_PERSON_AND_ORGANIZATION_ASSIGNMENT ( #25, #102, ( #95 ) ) ;
#156 = DIRECTION ( 'NONE',  ( -0.000000000000000000, -0.000000000000000000, -1.000000000000000000 ) ) ;
#157 = DIRECTION ( 'NONE',  ( 1.000000000000000000, 0.000000000000000000, -0.000000000000000000 ) ) ;
#158 = CARTESIAN_POINT ( 'NONE',  ( -14.00000000000000178, 0.000000000000000000, 0.000000000000000000 ) ) ;
#159 = FACE_OUTER_BOUND ( 'NONE', #77, .T. ) ;
#160 = LOCAL_TIME ( 13, 52, 33.00000000000000000, #124 ) ;
#161 = PERSON_AND_ORGANIZATION_ROLE ( 'creator' ) ;
#162 = AXIS2_PLACEMENT_3D ( 'NONE', #35, #94, #249 ) ;
#163 = CALENDAR_DATE ( 2023, 12, 9 ) ;
#164 = MANIFOLD_SOLID_BREP ( 'Áîáûøêà-Âûòÿíóòü1', #111 ) ;
#165 = ORIENTED_EDGE ( 'NONE', *, *, #69, .T. ) ;
#166 = VERTEX_POINT ( 'NONE', #97 ) ;
#167 = CIRCLE ( 'NONE', #15, 11.00000000000000000 ) ;
#168 = CC_DESIGN_PERSON_AND_ORGANIZATION_ASSIGNMENT ( #65, #140, ( #101 ) ) ;
#169 = DIRECTION ( 'NONE',  ( 1.000000000000000000, 0.000000000000000000, 0.000000000000000000 ) ) ;
#170 = CARTESIAN_POINT ( 'NONE',  ( 0.000000000000000000, 0.000000000000000000, 0.000000000000000000 ) ) ;
#171 = DIRECTION ( 'NONE',  ( 1.000000000000000000, 0.000000000000000000, 0.000000000000000000 ) ) ;
#172 = CC_DESIGN_PERSON_AND_ORGANIZATION_ASSIGNMENT ( #71, #221, ( #182 ) ) ;
#173 = APPLICATION_PROTOCOL_DEFINITION ( 'international standard', 'config_control_design', 1994, #220 ) ;
#174 = CYLINDRICAL_SURFACE ( 'NONE', #96, 11.00000000000000000 ) ;
#175 = CC_DESIGN_APPROVAL ( #34, ( #182 ) ) ;
#176 = AXIS2_PLACEMENT_3D ( 'NONE', #134, #108, #112 ) ;
#177 = ADVANCED_FACE ( 'NONE', ( #64, #61 ), #213, .F. ) ;
#178 = DIRECTION ( 'NONE',  ( -1.000000000000000000, 0.000000000000000000, 0.000000000000000000 ) ) ;
#179 =( LENGTH_UNIT ( ) NAMED_UNIT ( * ) SI_UNIT ( .MILLI., .METRE. ) );
#180 = COORDINATED_UNIVERSAL_TIME_OFFSET ( 3, 0, .AHEAD. ) ;
#181 = PRODUCT_DEFINITION ( 'UNKNOWN', '', #95, #8 ) ;
#182 = SECURITY_CLASSIFICATION ( '', '', #29 ) ;
#183 = AXIS2_PLACEMENT_3D ( 'NONE', #36, #185, #231 ) ;
#184 = CARTESIAN_POINT ( 'NONE',  ( 14.00000000000000178, 1.714505518806294835E-15, 0.000000000000000000 ) ) ;
#185 = DIRECTION ( 'NONE',  ( 0.000000000000000000, 0.000000000000000000, 1.000000000000000000 ) ) ;
#186 = CARTESIAN_POINT ( 'NONE',  ( 0.000000000000000000, 0.000000000000000000, 6000.000000000000000 ) ) ;
#187 = VERTEX_POINT ( 'NONE', #158 ) ;
#188 = EDGE_CURVE ( 'NONE', #246, #19, #100, .T. ) ;
#189 = CYLINDRICAL_SURFACE ( 'NONE', #22, 14.00000000000000178 ) ;
#190 = CC_DESIGN_SECURITY_CLASSIFICATION ( #182, ( #95 ) ) ;
#191 = VECTOR ( 'NONE', #132, 1000.000000000000000 ) ;
#192 = CARTESIAN_POINT ( 'NONE',  ( 11.00000000000000000, 1.347111479062088405E-15, 6000.000000000000000 ) ) ;
#193 = DIRECTION ( 'NONE',  ( 0.000000000000000000, 0.000000000000000000, 1.000000000000000000 ) ) ;
#194 = DIRECTION ( 'NONE',  ( -0.000000000000000000, -0.000000000000000000, -1.000000000000000000 ) ) ;
#195 = DIRECTION ( 'NONE',  ( 1.000000000000000000, 0.000000000000000000, 0.000000000000000000 ) ) ;
#196 = APPROVAL ( #242, 'UNSPECIFIED' ) ;
#197 = APPROVAL_ROLE ( '' ) ;
#198 = COORDINATED_UNIVERSAL_TIME_OFFSET ( 3, 0, .AHEAD. ) ;
#199 = PERSON_AND_ORGANIZATION ( #1, #4 ) ;
#200 = SHAPE_DEFINITION_REPRESENTATION ( #121, #5 ) ;
#201 = PERSON_AND_ORGANIZATION ( #1, #4 ) ;
#202 = VECTOR ( 'NONE', #211, 1000.000000000000000 ) ;
#203 = ORIENTED_EDGE ( 'NONE', *, *, #66, .F. ) ;
#204 = UNCERTAINTY_MEASURE_WITH_UNIT (LENGTH_MEASURE( 1.000000000000000082E-05 ), #179, 'distance_accuracy_value', 'NONE');
#205 = CC_DESIGN_PERSON_AND_ORGANIZATION_ASSIGNMENT ( #201, #241, ( #95 ) ) ;
#206 = DIRECTION ( 'NONE',  ( -1.000000000000000000, 0.000000000000000000, 0.000000000000000000 ) ) ;
#207 = DIRECTION ( 'NONE',  ( -0.000000000000000000, -0.000000000000000000, -1.000000000000000000 ) ) ;
#208 = ORIENTED_EDGE ( 'NONE', *, *, #188, .T. ) ;
#209 = DIRECTION ( 'NONE',  ( -1.000000000000000000, 0.000000000000000000, 0.000000000000000000 ) ) ;
#210 = DIRECTION ( 'NONE',  ( 0.000000000000000000, 0.000000000000000000, 1.000000000000000000 ) ) ;
#211 = DIRECTION ( 'NONE',  ( -0.000000000000000000, -0.000000000000000000, -1.000000000000000000 ) ) ;
#212 = ORIENTED_EDGE ( 'NONE', *, *, #90, .F. ) ;
#213 = PLANE ( 'NONE',  #240 ) ;
#214 = ORIENTED_EDGE ( 'NONE', *, *, #60, .F. ) ;
#215 = LINE ( 'NONE', #39, #30 ) ;
#216 = DIRECTION ( 'NONE',  ( 0.000000000000000000, 0.000000000000000000, 1.000000000000000000 ) ) ;
#217 = APPROVAL_PERSON_ORGANIZATION ( #126, #196, #197 ) ;
#218 = EDGE_CURVE ( 'NONE', #247, #246, #146, .T. ) ;
#219 = CALENDAR_DATE ( 2023, 12, 9 ) ;
#220 = APPLICATION_CONTEXT ( 'configuration controlled 3d designs of mechanical parts and assemblies' ) ;
#221 = PERSON_AND_ORGANIZATION_ROLE ( 'classification_officer' ) ;
#222 = LOCAL_TIME ( 13, 52, 33.00000000000000000, #142 ) ;
#223 = AXIS2_PLACEMENT_3D ( 'NONE', #113, #32, #80 ) ;
#224 = DATE_AND_TIME ( #70, #72 ) ;
#225 = ORIENTED_EDGE ( 'NONE', *, *, #3, .F. ) ;
#226 = APPROVAL ( #138, 'UNSPECIFIED' ) ;
#227 = EDGE_LOOP ( 'NONE', ( #214, #133 ) ) ;
#228 = ORIENTED_EDGE ( 'NONE', *, *, #144, .F. ) ;
#229 = ORIENTED_EDGE ( 'NONE', *, *, #69, .F. ) ;
#230 = EDGE_LOOP ( 'NONE', ( #75, #63 ) ) ;
#231 = DIRECTION ( 'NONE',  ( 1.000000000000000000, 0.000000000000000000, 0.000000000000000000 ) ) ;
#232 = ORIENTED_EDGE ( 'NONE', *, *, #60, .T. ) ;
#233 = ORIENTED_EDGE ( 'NONE', *, *, #66, .T. ) ;
#234 = CARTESIAN_POINT ( 'NONE',  ( 0.000000000000000000, 0.000000000000000000, 6000.000000000000000 ) ) ;
#235 =( NAMED_UNIT ( * ) PLANE_ANGLE_UNIT ( ) SI_UNIT ( $, .RADIAN. ) );
#236 = VERTEX_POINT ( 'NONE', #118 ) ;
#237 = CARTESIAN_POINT ( 'NONE',  ( 0.000000000000000000, 0.000000000000000000, 6000.000000000000000 ) ) ;
#238 = CARTESIAN_POINT ( 'NONE',  ( 0.000000000000000000, 0.000000000000000000, 6000.000000000000000 ) ) ;
#239 = LOCAL_TIME ( 13, 52, 33.00000000000000000, #198 ) ;
#240 = AXIS2_PLACEMENT_3D ( 'NONE', #84, #193, #157 ) ;
#241 = PERSON_AND_ORGANIZATION_ROLE ( 'design_supplier' ) ;
#242 = APPROVAL_STATUS ( 'not_yet_approved' ) ;
#243 = ORIENTED_EDGE ( 'NONE', *, *, #90, .T. ) ;
#244 = AXIS2_PLACEMENT_3D ( 'NONE', #170, #248, #169 ) ;
#245 = ORIENTED_EDGE ( 'NONE', *, *, #99, .F. ) ;
#246 = VERTEX_POINT ( 'NONE', #192 ) ;
#247 = VERTEX_POINT ( 'NONE', #116 ) ;
#248 = DIRECTION ( 'NONE',  ( 0.000000000000000000, 0.000000000000000000, 1.000000000000000000 ) ) ;
#249 = DIRECTION ( 'NONE',  ( 1.000000000000000000, 0.000000000000000000, 0.000000000000000000 ) ) ;
ENDSEC;
END-ISO-10303-21;
